City And Colour - Comin Home tab

This is the intro to City and Colour - Comin' Home ,they are exact apart from the 
harmonics but added them to make the song sound better , enjoy :)

e|--0-----0-------------|
B|--1/31p0--0-----0-----|
G|-----------2/42p0-----|
D|----------------------|
A|----------------------|
E|----------------------|

e|-0--0-0-0-0-----12x-0-0-0-0--0-0-0-0-0-0---0-0-0-0----|
B|-0--0-0-0-0---12x---3-3-3-3--1-1-1p0-0-0---3-3-3-3----|
G|-0--0-0-0-0-12x-----0-0-0-0--0-0-0-0-0-0---0-0-0-0----|
D|-0h-2-2-2-2---------4-4-4-4--2-2-2-2-2-2---4-4-4-4----|
A|-0h-2-2-2-2---------5-5-5-5--3-3-3-3-3-3---5-5-5-5----|
E|-0--0-0-0-0---------5-5-5-5--3-3-3-3-3-3---5-5-5-5----|

e|-0--0-0-0-0-----12x-0-0-0-0--0-0-0-0-0-0---0-0-0-0----|
B|-0--0-0-0-0---12x---3-3-3-3--1-1-1p0-0-0---3-3-3-3----|
G|-0--0-0-0-0-12x-----0-0-0-0--0-0-0-0-0-0---0-0-0-0----|
D|-0h-2-2-2-2---------4-4-4-4--2-2-2-2-2-2---4-4-4-4----|
A|-0h-2-2-2-2---------5-5-5-5--3-3-3-3-3-3---5-5-5-5----|
E|-0--0-0-0-0---------5-5-5-5--3-3-3-3-3-3---5-5-5-5----|

(straight after play this its done really quickly)

e|--0-----0-------------|
B|--1/31p0--0-----0-----|
G|-----------2/42p0-----|
D|----------------------|
A|----------------------|
E|----------------------|

than into verse (pretty much playing the intro over again without harmonics or the 
little riff )  ...
Tap to rate this tab
 
# A B C D E F G H I J K L M N O P Q R S T U V W X Y Z