City And Colour - Sleeping Sickness chords

Highlighted       Show chord diagrams
Sleeping Sickness by City And Colour


Intro Em - C - G - G/F# - Em - C - G

Verse

G/F#  Em         C        G              G/F#        Em
I awoke only to find my lungs empty and through the night
        C          G              G/F#  Em
so it seems I'm not breathing and now my dreams
             C              G
are nothing like they were meant to be
         G/F#     Em            C          G
and I'm breaking down, i think I'm breaking down
   G/F#    Em               C             G
and I'm afraid to sleep because of what haunts me
G/F#   Em         C         G
 such as living with the uncertainty
  G/F#     Em                      C
that I'll never find the words to say
           G               G/F# Em            C          G  G/F#**
which would completely explain,   just how I'm breaking down


Chorus
GM             Em               C
someone come, someone come and save my life
             GM             Em
maybe I'll sleep when I am dead
                       C
but now it's like the night is taking sides
    GM             Em                C
and all the worries that occupy the back of my mind
          GM         Em          C
could it be this misery will suffice?

Em - C - G - G/F# - Em - C - G

G/F#    Em               C      G                  G/F#       Em
I've become a simple souvenir of someone's kill and like the sea
                C        G               G/F#
I'm constantly changing from calm to ill
  Em                         C
madness fills my heart and soul
     G                           G/F#      Em
as if the great divide could swallow me whole
            C         G    G/F#**
oh how I'm breaking down


Play Chorus

Bride

Guitar 1
GM - Em - C - C x4 (Chorus Chords with same progression)
Em - C - G - G/F# - Em - C - G - G/F#**

Guitar 2
e|-------------------------------------------10-----------|
B|----8-7-5--8-7-5-------------------10sbu12---12bd10-5h8-|
G|---------7------7--7/9----------7-----------------------|
D|-5/7-------------------7/9~-9-10--9---------------------|
A|--------------------------------------------------------|
E|--------------------------------------------------------|

e|--------------------------------------10-----------7h8p7-----------|
B|-5\3/5--------5h8-7--8/10p8h10-10bu12---12bd10-8-10-----10-8\7h8p7-|
G|------7-4h7~-7-----------------------------------------------------|
D|-------------------------------------------------------------------|
A|-------------------------------------------------------------------|
E|-------------------------------------------------------------------|

e|----------------------------------------------------------------|
B|----------------------------------------------8~-10p8-8-10sbu12-|
G|-9p7-------------------------------------------------9----------|
D|----9\7-5---5-7-9\7-5-5-9\7-5--9\7--5h7sbu9~--------------------|
A|----------7----------7-------7----7-----------------------------|
E|----------------------------------------------------------------|

e|----------------------------------------|
B|-12bd10--10p8p7-5-3/5-------------------|
G|----------------------7-----------------|
D|-----------------------9\7-5-5~---------|
A|----------------------------------------|
E|----------------------------------------|


GM             Em               C
someone come, someone come and save my life (save my life)
GM             Em               C
someone come, someone come and save my life (save my life)
GM             Em               C
someone come, someone come and save my life
          GM         Em          C~
could it be this misery will suffice?
Tap to rate this tab
 
# A B C D E F G H I J K L M N O P Q R S T U V W X Y Z