City And Colour - Oh Sister tab

I've seen this song for a while now, and it's going to be on the new album 'Little 
Hell'. So I figured I'd give it a shot.

The song is generally finger picked, but I'll just give you the chords for now.

Verse

"Oh sister..."
e|--2------0---------------------------|
B|--3------3-------0-------------------|
G|--4------4-------2/4-----2-----4-----|
D|--4------4-------0-------0-----0-----|
A|--2------0-------x-------x-----x-----|
E|-----------------3-------2-----5-----|

Chorus

"But the blackness in your heart..."
e|--------2-----------|
B|---0----3-----------|
G|---2----4-----------|
D|---2----4----7------|
A|---0----2----5------|
E|--------2----5------|

Bridge (Something along these lines...)
e|--------------------|
B|---0----0-----------|
G|---4----6----6------|
D|---5----7----0------|
A|---5----7----5------|
E|---3----5----7------|


Again, this is just the basics of it. I tabbed it out in about 10 minutes, so don't rage 
if I got a part wrong. Haha. Enjoy.
Tap to rate this tab
 
# A B C D E F G H I J K L M N O P Q R S T U V W X Y Z