City And Colour - Weightless tab

----------------------------------------------------------------------------
			     WEIGHTLESS - City and Colour
----------------------------------------------------------------------------
Tabbed by:KJ

Tuning: Standard
This is just a very basic version, just to give you the idea, so please feel free to use 
it and make it better!

INTRO:
e|-----------------------------|
B|-------6-1--------6-1--------|
G|-------7-2--------7-0--------|
D|---5/7-7-3----5/7-7-2----5---|
A|---3/5---3----3/5---3----3---|
E|-----------------------------|

VERSE:                                             x4
e|-----------------------------------------------------|
B|---------6--1----------6--1----------6--1---3--------|   Strum the G
G|---------7--2----------7--0----------7--2---4--------|   however many
D|-------3-7--3--------3-7--2--------3-7--3---5--------|   times!
A|---3h5------3----3h5------3----3h5------3---5--------|
E|-----------------------------------------------------|

CHORUS:
      F  G  Am  F  G  Dm  f  G  Am  F  G  D
e|--------------------1-------------------0--------|
B|----1--1--1---1--1--2---1--1--1---1--1--2--------|
G|----2--0--2---2--0--3---2--0--2---2--0--3--------|
D|----3--0--2---3--0--0---3--0--2---3--0--0--------|
A|----3--2--0---3--2------3--2--0---3--2-----------|
E|-------3---------3---------3---------3-----------|
(You can play the G without the root note, making it some sort of C/B varient, i guess, 
but it's practically the same chord, so W/E you think sounds best)

Then repeat when needed.
I don't have time to work out the solo, but by ear it sounds like the verse is playing underneath.
Just to reiterate again, I know this is not a full version, it may not even be a good 
version, but this is what i've gotten so far. I've put this up to give people a rough idea 
of what's going on, but please, feel free to make any corrections!

************************************

| /   slide up
| \   slide down
| h   hammer-on
| p   pull-off
| ~   vibrato
| +   harmonic
| x   Mute note
| b   Bend
| pb  Pre-bend
| br  Bend release
| pbr Pre-bend release
| brb Bend release bend

************************************
Tap to rate this tab
 
# A B C D E F G H I J K L M N O P Q R S T U V W X Y Z