City And Colour - Little Hell tab

City and Colour
Little Hell
Album Little Hell

Tuning: Standard
Capo 5th Fret

Intro: - General finger picking (Just listen to the song it's pretty straight forward)

e|---0---0-------0-------0---0---| x 6
B|---1---1-------1--2h0--1---1---|
G|---2---0-------2-------0---0---|
D|---2---2--2h0--3-------2---0---|
A|---0---3---------------3---2---|
D|-------------------------------|

First Verse: - (What if everything's just the way that it will be?)
Basically the same as the intro but strumming

e|---0---0-------0-------0---0---|
B|---1---1-------1--2h0--1---1---|
G|---2---0-------2-------0---0---|
D|---2---2--2h0--3-------2---0---|
A|---0---3---------------3---2---|
D|-------------------------------|

Chorus: - (there's a degree of difficulty in dealing with me...)

e|---3---0---1-----|
B|---0---1---1-----|
G|---0---0---2-----|
D|---0---2---3-----|
A|---2---3---3-----|
D|---3-------1-----|

(I'm pretty sure the chorus is right please email me d.wainman370@hotmail.com)

http://www.dannysguitartuition.com
-----------------------------
Danny x
Tap to rate this tab
 
# A B C D E F G H I J K L M N O P Q R S T U V W X Y Z