City And Colour - Little Hell tab

Song: Little Hell
Album: Little Hell

This is just a basic tab. I tabbed out the chords and the solo. There's little hammer 
ons and pull offs in different places, but I wasn't going to get each one. Just play 
around with it.

Capo on 5th.

Verse

    Am   C    F    C    G
e|--0----0----0----0----0----|
B|--1----1----1----1----1----|
G|--2----0----2----0----0----|
D|--2----2----3----2----0----|
A|--0----3----3----3----2----|
E|----------------------3----|

Chorus

    G    Am   C
e|--0----0----0----|
B|--1----1----1----|
G|--0----2----2----|
D|--0----2----3----|
A|--2----0----3----|
E|--3--------------|


Solo (Relative to capo)

e|------5-----------------------------------------------7-------------------|
B|-3/8----3--1-3-1---------------------------3-5------5--8------------------|
G|-----------------2---5-4----0-2~--2-4-5-7------5/2/5----9-7/2--5h7-2-0----|
D|--------------------------2--------------------------------------------2-0|
A|--------------------------------------------------------------------------|
E|--------------------------------------------------------------------------|

Enjoy!
Tap to rate this tab
 
# A B C D E F G H I J K L M N O P Q R S T U V W X Y Z