City And Colour - Sorrowing Man tab

Song: Sorrowing Man
Artist: City and Colour
Album: Little Hell
Tabbed by: Dan Zangari

Standard Tuning, distortion and lots of reverb, Dallas does his usual random picking of 
the higher strings in between the chords so you can play around with that.

Verse:


e|----0------------0----------------|
B|----0------------3----------------|
G|----0------------0----------------|
D|----2------------4----------------|
A|----2------------5----------------|
E|----0------------5--------3--5----|


Chorus:


e|----0----0-----0----0-----0------0------|
B|----0----0-----3----0-----1p0----1p0----|
G|----0----0-----0----0-----0------0------|
D|----5----9-----4----10----2------2------|
A|----7----10----5----12----3------3------|
E|----7----10----5----12----3------3------|


Note: If you're playing it acoustically, and you want alternative chords for the chorus, 
you can play this:


e|----0----0----0----0----0------0------|
B|----0----0----3----1----1p0----1p0----|
G|----0----0----0----2----0------0------|
D|----2----0----4----2----2------2------|
A|----2----2----5----0----3------3------|
E|----0----3----5---------3------3------|


That's it! Have fun.


Lyrics:

Sorrowing man, look how worn you've become
You once were Lord of the baron sea
There’s blood on our hands, in this perfect madness
You're living on borrowed time

Oh how you have lost your way
Oh how you have lost your way

There's no sympathy, for we don't know the cure
Cause what you've got, well it runs too pure
But you've lived and breathed more than any man I know
But you're not done, oh, at least I hope

Oh how you have lost your way
Oh how you have lost your way
In this life that we have made together
Oh how you have lost your way
Oh how you have lost your way
Oh how you have lost your way
Tap to rate this tab
 
# A B C D E F G H I J K L M N O P Q R S T U V W X Y Z