City And Colour - Little Hell tab

Tuning: Standard
Capo 5th Fret

Intro: - Strum chords while picking, listen to the song to understand the rhythm. There 
is lot's of room for
improvisation between chords.

e|------------0-------------------------0---0--0-0-----0-----0-------|
B|-------1----1--1--1---1-1-1-1---1-1---1---1--1-1-----1h3---3p1--1--|
G|-------2----2--2--0---0-0-0-0---0-0---0h2----2-2-----0-----0-------|
D|-----2---2--2--2--0h2-2-2-2-2p0-0-0---3------3-3-----2-----2-------|
A|---0--------------3---3-3-3-3---3-3---------------3--3---2-3-------|
D|-------------------------------------------------------------------|

e|------------0-------------------------0---0--0-------0-------0-------|
B|-------1----1--1--1---1-1-1-1---1-1---1---1--1-------3s5s3---3p1-----|
G|-------2----2--2--0---0-0-0-0---0-0---0h2----2p0-----0-------0-------|
D|-----2---2--2--2--0h2-2-2-2-2p0-0-0---3------3-------2-------2-------|
A|---0--------------3---3-3-3-3---3-3---------------3--3-----2-3-------|
D|---------------------------------------------------------------------|

Chorus:

e|---3---0---1-----|
B|---0---1---1-----|
G|---0---0---2-----|
D|---0---2---3-----|
A|---2---3---3-----|
D|---3-------1-----|


solo:

e|-----5--------------------------------|
B|-3/8----3-1---0-3-1-------------------|
G|--------------------2~----5-4----0-2~-|
D|------------------------------2-------|
A|--------------------------------------|
E|--------------------------------------|

e|-------------------------------7----------------------|
B|--------------------------------8---------------------|
G|-2-4-5-7--5-7s9-7-5----5-7s9------9s7-7s5-7-5---------|
D|--------------------7-------------------------7---5---|
A|------------------------------------------------------|
E|------------------------------------------------------|
Tap to rate this tab
 
# A B C D E F G H I J K L M N O P Q R S T U V W X Y Z