Song name
# A B C D E F G H I J K L M N O P Q R S T U V W X Y Z

City And Colour - Weightless chords

Tabbed by: Henry Garbett
Email: h.garbett@hotmail.com
Tunning: Standard

 Just a short basic tab for you, once you've got the chords its easy to get the patterns 
and accents on it. Enjoy

INtro:
e|-5-5---0---5-5---0--0-1-----|
B|-6-6---1---6-6---1--1-0-----|
G|-7-7---2---7-7---2--0-0-----|
D|-7-7---3---7-7---3--2-0-----|
A|-5-5---3---5-5---3--3-2-----|
E |-5-5---x---5-5---x--3-3----|

Verse
e|-5555--0~~-5555--0~~-5555--0~~-0-0--11-----|
B|-6666--1~~-6666--1~~-6666--1~~-1-1--00-----|
G|-7777--2~~-7777--2~~-7777--2~~-0-0--00-----|
D|-7777--3~~-7777--3~~-7777--3~~-2-2--00-----|
A|-5555--3~~-5555--3~~-5555--3~~-3-3--22-----|
E |-5555--x~~-5555--x~~-5555--x~~-3-3--33----|


Chorus
e|-1-0-0~-0-x-1~--|
B|-3-1-1~-1-x-3~--|
G|-2-2-2~-2-0-2~--|
D|-0-2-3~-3-0-0~--|
A|-0-0-3~-3-2-0~--|
E|-x-x-x~-x-3-x~--|

Then verse
          Chorus
          Solo (play the verse chords)
          End with the chorus


 Dead basic tab, dead easy to play though. hope you can manage with this much, you 
should be able to. peace
Tap to rate this tab
 
# A B C D E F G H I J K L M N O P Q R S T U V W X Y Z