Song name
# A B C D E F G H I J K L M N O P Q R S T U V W X Y Z

City And Colour - The Girl tab

CAPO 3RD FRET. STANDARD TUNING (EADGBe)

Difficult to grasp at first, took me a few days to play properly! Strum the 3 bass notes
with your thumb and pick the G, B and e strings with your index finger. The hammerings
on I've included are reccomendations, feel free to add your own or modify mine if you 
wish. Its easiest if you play the G chord shape with ring finger on the E string third fret
and your middle finger on the A string second fret. Makes it easier to get ito position 
for the next chords. Enjoy :) x

INTRO.

   G                                Em
E|--------------------------------------------------------------------------|
B|--------------------------------------------------------------------------|
G|---0---0---0---0-----0---0---0---0---0---0---0---0-----0---0-----0---0----|
D|-0---0---0---0---------0---0-------2---2---2---2---0h2---2---0h2---2------|
A|-2---2---2---2---0h2---2---2-------2---2---2---2---------2---------2------|
E|-3---3---3---3---------3---3---2---0---0---0---0---------0---------0------|

THEN, REPEAT THIS THROUGHOUT:

   C
E|--------------------------------------------------------------------------|
B|-------0-------0-------0-------0-------------3---0------------------------|
G|---0-------0-------0-------0---------0---0-----------0---0---0---0--------|
D|-2---2---2---2---4---4---4---4---------0---0---0---0---0---0--------------|
A|-3---3---3---3---5---5---5---5---0h2---2---2---2---2---2---2--------------|
E|-0---0---0---0---0---0---0---0---------3---3---3---3---3---3---2----------|


E|-------------------------0------------------------------------------------|
B|---------------------3-------0-----------0-------0-------0-------0--------|
G|-----0---0---0---0---------------0---0-------0-------0-------0------------|
D|-0h2---2---2---2---2---2---2---2---2---2---2---2---4---4---4---4----------|
A|-------2---2---2---2---2---2---2---3---3---3---3---5---5---5---5----------|
E|-------0---0---0---0---0---0---0---0---0---0---0---0---0---0---0----------|


For the fast paced end of the song, just play G   Em   C   followed by a C slided up 2
frets over and over again :)

cd932011@yahoo.co.uk
Tap to rate this tab
 
# A B C D E F G H I J K L M N O P Q R S T U V W X Y Z