Song name
# A B C D E F G H I J K L M N O P Q R S T U V W X Y Z

City And Colour - The Girl tab

-------------------------------------------------------------------------------
			     City And Colour-The Girl (Correct chords)
-------------------------------------------------------------------------------
Tabbed by:Pmcmahon
Email:Pmcmahon30@gmail.com

Tuning:Standard,Capo on Third

all finger style,listen to the song and figure out the rhythm do not use this tab for rhythm


e|---------------------------------------------------------------------------|
B|----3--------3-3-3-3------3---3------3---3------0--0---0h5p0----3----------|
G|----4--------4-4-4-4-------4---4-----4---4----------------------4----------|
D|----0---------------------2h0-2------2h0-2------4--4h0-4--------0----------|
A|----2h0------2-2-0-0------2h0-2------3---3------5--5---5--------2h0--------|
E|----3--------3-3-2-2----------------------------5--5---5--------3----------|


Pretty much the same throughout the song except add this plucked slide when moving from 
the first chord to the second chord instead of the -2-2-0-0- on the second measure       
                                      -3-3-2-2-


e|-----------------------------------------------------------------------------|
B|--------3/5------------------------------------------------------------------|
G|-----------------------------------------------------------------------------|
D|-----------------------------------------------------------------------------|
A|-----------------------------------------------------------------------------|
E|--------3/5------------------------------------------------------------------|



any comments or help e-mail me @ Pmcmahon30@gmail.com
Tap to rate this tab
# A B C D E F G H I J K L M N O P Q R S T U V W X Y Z