Song name
# A B C D E F G H I J K L M N O P Q R S T U V W X Y Z

City And Colour - Weightless tab

Song: Weightless
Band: City and Colour
Writer: Dallas Green
Album: Little Hell (2011)

Standard tuning

Intro:

e----5--0-----5--0-------|
B----6--1-----6--1-------|
G 7--7--2--7--7--2-------|
D 7--7--3--7--7--3-------|
A-5--5--3--5--5--3--3--2-|
E-------------------3--3-|

Verse:

e----1--0------------------------------------------------|
B---3---1------------------------------------------------|
G--2----2------------------------------------------------| x3 then:
D-0-----3----------5------------------------------3h5----|   4x
A-------3----------5 However many times then:--3h5-------|
E------------------3-------------------------------------|

Chorus 1:

e-1--0--0--0----1---|
B-3--1--1--1----3---|
G-2--2--2--2----2---|  x2
D----2--3--3--0-----|
A-------3--3--2-----|
E-------------3-----|

Interlude:

e----1--0-----------------------------------------------|
B---3---1-----------------------------------------------|
G--2----2-----------------------------------------------| x3 then:
D-0-----3----------5------------------------------3h5---|  x2
A-------3----------5 However many times then:--3h5------|
E------------------3------------------------------------|

Verse:

e----1--0-----------------------------------------------|
B---3---1-----------------------------------------------|
G--2----2-----------------------------------------------| x3 then:
D-0-----3----------5------------------------------3h5---|  x2
A-------3----------5 However many times then:--3h5------|
E------------------3------------------------------------|

Chorus 2:

e-1--0--0--0----1---|
B-3--1--1--1----3---|
G-2--2--2--2----2---|  x4
D----2--3--3--0-----|
A-------3--3--2-----|
E-------------3-----|

Solo -(Rhythm Guitar):


e----1--0-----------------------------------------------|
B---3---1-----------------------------------------------|
G--2----2-----------------------------------------------| x3 then:
D-0-----3----------5------------------------------3h5---|  x2
A-------3----------5 However many times then:--3h5------|
E------------------3------------------------------------|

(Lead Guitar)

e-----------------------------------------------|
B-----------------------------------------------|
G-10--------------------------------------------|
D-10-12-10-12-10-----10-----10------------------|
A---------------10h12--10h12---8----------------|
E--------------------------------10-8-10-8-3----|bp1

e------------------------------------------|
B------------------------------------------|
G------10----------------------------------|
D-10h12--12-10-12-10-----------------------|
A-------------------12-10-8-10-8-----------|
E--------------------------------10-10-10\-|

e----------------------------------------------------------|
B----------------------------------------------------------|
G-12bp10h12b-10h12p10p9-10-12----------------10---------10-|
D----------------------------10------10h12---10-12-10-12---|
A------------------------------10h12-----------------------|
E----------------------------------------------------------|

e------------------------------------|
B------------------------------------|
G------------------------------------|
D-12-10------------------------------|
A------12-12-10-10-10-10-10-8----8---|
E-----------------------------10--10-|


Song Order:

Intro
Verse
Chorus 1
Interlude
Verse
Chorus 2
Solo
Chorus 2

That's it :) Enjoy!
Tap to rate this tab
# A B C D E F G H I J K L M N O P Q R S T U V W X Y Z