Song name
# A B C D E F G H I J K L M N O P Q R S T U V W X Y Z

City And Colour - Of Space And Time tab

----------------------------------------------------------------------------
                   Of Space And Time (Roaming Through The Hills) 
                              - City and Colour
----------------------------------------------------------------------------
Tabbed by: Gavin
Email: gavinjoseph@hotmail.co.uk

I couldn't find an accurate TAB of this song and I've seen a lot of people play it 
wrong, so here it is. 
The actual song isn't released yet so if the album version is different I'll update it. 
If you have any queries or see any errors, please email me.


Tuning: Standard Tuning (Capo on 3)

Dallas uses a few variations with his pull-offs and hammer-ons, but the basic pattern is this:

Verse (figure out strumming):

e|---0---0-0-0-----0---0-0-0-----0---0-------0---0----------0---0-0-0-----0---0-0-0---|
B|---2---2-2-2-----2---2-2-2-----2---2-------2---2----------2---2-2-2-----2---2-2-2---|
G|---2---2-2-2-----2---2-2-2-----2---2-------2---2----------2---2-2-2-----2---2-2-2---|
D|---2---2-2-2-----2---2-2-2-----2---2-0h2---2---2-0h2p0----0---0-0-0-----0---0-0-0---|
A|-0-0---0-0-0---0-0---0-0-0---0-0---0-----0-0---0----------0---0-0-0-----0---0-0-0---|
E|--------------------------------------------------------2-----2-2-2---2-----2-2-2---|

e|---0---0-0-0-----0---0-0-0--|
B|---2---2-2-2-----2---2-2-2--|
G|---2---2-2-2-----2---2-2-2--|
D|---0---0-0-0-----0---0-0-0--|
A|---0---0-0-0-----0---0-0-0--|
E|-2-----2-2-2---2-----2-2-2--|

Chorus (same strum pattern):

e|--0-----0-----0-----3---|
B|--0-----2-----0-----3---|
G|--2-----2-----1-----0---|
D|--4-----2-----2-----0---|
A|--4-----0-----2-----2---|
E|--------------0-----3---|

Lyrics:

Well, I don't know what drugs to take
To successfully alter the state
That my mind has been in as of late
Something's eating away at my brain

There's an elephant in the back of the room
And it's standing in plain view
Everyone can see
That it looks just like me

Roaming through the hills
All alone
Trying to find
My direction home
A question of space
A matter of time
Follow the stars
Until the first light

I would not call this road a home
But it is all I know
*something something* call this road a home
When it is all I know

Roaming through the hills
All alone
Trying to find
My direction home



h - hammer on
p - pull off
Tap to rate this tab
# A B C D E F G H I J K L M N O P Q R S T U V W X Y Z