Song name
# A B C D E F G H I J K L M N O P Q R S T U V W X Y Z

City And Colour - Thirst tab

-------------------------------------------------------------------------------
                             Thirst - City & Colour
-------------------------------------------------------------------------------
Tabbed by: weischedelj
E-mail:

Tuning: Standard (Capo 2)

Here's a simple tab for the song. It's all correct but listen to the song for timings. I
just wanted people to have a basic/accurate tab up until someone fully tabs it out. Cheers!

Intro/Verse
e|---------------------------------------------------------------------------|
B|---------------------------------------------------------------------------|
G|---------------------------------------------------------------------------|
D|-----------5-------------------5----------------5-----------------5--------|
A|---------------------------------------------------------------------------|
E|---3---5-------5------3---5-----5-----3---5-------5--------3---5-----5-----|

"When I think of/Fates worse than death....."
e|---------------------------------------------------------------------------|
B|---------------------------------------------------------------------------|
G|---------------------------------------------------------------------------|
D|-----------5-------------------5----------------5-----------------5--------|
A|---------------------------------------------------------------------------|
E|---3---5-------5------3---5-----5-----3---5-------5--------3---5-----5-----|

"All I can think of/Is something you said..."
e|-------------------------------------------------------------------------------|
B|-------------------------------------------------------------------------------|
G|-------------------------------------------------------------------------------|
D|-----------2-------------------2-----------------5-----------------5-----------|
A|-------------------------------------------------------------------------------|
E|---0---1-------1------0---1------1-------3---5-------5------3----5-----5-------|

"You said we were golden/Bright like the sun..."
e|---------------------------------------------------------------------------|
B|---------------------------------------------------------------------------|
G|---------------------------------------------------------------------------|
D|-----------5-------------------5----------------5-----------------5--------|
A|---------------------------------------------------------------------------|
E|---3---5-------5------3---5-----5-----3---5-------5--------3---5-----5-----|

"And now I am stranded/Knowing I'm not the one..."
e|-------------------------------------------------------------------------------|
B|-------------------------------------------------------------------------------|
G|-------------------------------------------------------------------------------|
D|-----------2-------------------2-----------------5-----------------5-----------|
A|-------------------------------------------------------------------------------|
E|---0---1-------1------0---1------1-------3---5-------5------3----5-----5-------|

"An ocean of anger/Flowing through me..."
e|---------------------------------------------------------------------------|
B|---------------------------------------------------------------------------|
G|---------------------------------------------------------------------------|
D|-----------5-------------------5----------------5-----------------5--------|
A|---------------------------------------------------------------------------|
E|---3---5-------5------3---5-----5-----3---5-------5--------3---5-----5-----|

(Chords behind those notes)(Palm muted off and on)
e|-------------------------------------------------------------------------------|
B|-----3---------1---------------------------------------------------------------|
G|-----2---------2---------------------------------------------------------------|
D|-----2---------2---------------------------------------------------------------|
A|-----0---------0---------------------------------------------------------------|
E|-------------------------------------------------------------------------------|

"Bloodstained and broken/From what I failed to see..."
e|-------------------------------------------------------------------------------|
B|-------------------------------------------------------------------------------|
G|-------------------------------------------------------------------------------|
D|-----------2-------------------2-----------------5-----------------5-----------|
A|-------------------------------------------------------------------------------|
E|---0---1-------1------0---1------1-------3---5-------5------3----5-----5-------|

"Just like a snake-charmer/You led me astray..."
e|---------------------------------------------------------------------------|
B|---------------------------------------------------------------------------|
G|---------------------------------------------------------------------------|
D|-----------5-------------------5----------------5-----------------5--------|
A|---------------------------------------------------------------------------|
E|---3---5-------5------3---5-----5-----3---5-------5--------3---5-----5-----|

"Living in distress/Hoping help was on the way..."
e|-----------------------------------------------------------------------------|
B|-----------------------------------------------------------------------------|
G|-----------------------------------------------------------------------------|
D|-----------2-------------------2-----------------5-----------------5---------|
A|-----------------------------------------------------------------------------|
E|---0---1-------1------0---1------1-------3---5-------5------3----5-----5-----|

(Chords For Chorus)

Bm                     F                              Am         G
In the midst of a storm searching for shelter

Bm             F                 Am        G
I came upon one single feather

Bm                  F                             Am       G
A half-hearted wish for something better

Bm                       F
Gracefully cursed


I thirst

Repeat from beginning. Hope you get it! Sorry for the lack of organization. Just hope it 
helps out.
Tap to rate this tab
# A B C D E F G H I J K L M N O P Q R S T U V W X Y Z