Song name
# A B C D E F G H I J K L M N O P Q R S T U V W X Y Z

City And Colour - Harder Than Stone tab

I slowed down the actual song to 20% speed for accuracy. This is my first tab so please 
comment if you think something needs to be corrected. Thanks! (p.s.) if you really 
listen closely to the song you can hear all of the 0's I put in the tabs.
**CAPO 3rd FRET**


E |0h2--2p0--------------------------------------------|
B |---0-----0h1------1h3p1p0---1p0---------------------|
G |------------0-------------0-----0--2------------0---|
D |0--------------0----------2--------0--------0h2-----|
A |----------------------------------------------------|
E |----------------------------------------------------|

E |0h2---0h2s5-----------------------------------------|
B |------------0h1---1h3s5--------0--3-----------------|
G |----0----------0-------------0----0---2-------------|
D |0-----------0--------------0----------0-------------|
A |----------------------------------------------------|
E |----------------------------------------------------|
Tap to rate this tab
# A B C D E F G H I J K L M N O P Q R S T U V W X Y Z