Song name
# A B C D E F G H I J K L M N O P Q R S T U V W X Y Z

City And Colour - Commentators tab

CAPO 2

Love to play this song, especially that intro.

It's slidey.

Intro Solo thing.

e -33-32-0----------------------------------------------------------------------|
b ------------3--03-3/5--30--------------------------3--------------------------|
g -------------------------------2/420--------2--2/4----4-4p2p0-0-2-------------|
d ---------------------------------------2--5---5-------------------------------|
a ------------------------------------------------------------------------------|
E ------------------------------------------------------------------------------|

e -33-32-0----------------------------------------------------------------------|
b ------------3--03-3/5--30---------------------------3-------------------------|
g -------------------------------2/420--02----002/4--4\20---2-------------------|
d ---------------------------------------2------------------------5---5---------|
a ------------------------------------------------------------------------------|
E ------------------------------------------------------------------------------|


Intro / Chorus

G         Bm       C  C7 Em     Am      Em     C

0          0          0    0    0        0         0        0
0          3          1    1    0        1         0        1
4          4          0    0    0        2         0        0
5          4          2    0    2        2         2        2
5          2          3    2    2        0         2        3
3          0          0    0    0        0         0        0

G Bm C>Cmaj7>Em Am Em C

For the final C Chord, pull off the b string at the end.


Verse

G          Bm       Em        C

0           0           0           0
0           3           0           1
4           4           0           0
5           4           2           2
5           2           2           3
3           0           0           0

For the Verse, slow down the strumming, sometimes mute the strings...just go with the song

Enjoy!
Tap to rate this tab
# A B C D E F G H I J K L M N O P Q R S T U V W X Y Z