Song name
# A B C D E F G H I J K L M N O P Q R S T U V W X Y Z

City And Colour - Harder Than Stone tab

capo 3

This is my first tab ! I hope you guys enjoy playing this great song ! (:
Standard tuning

-0h2---2p0-------------------------------|
-----3-----0h1------1h3p1p0---0----------|
-2-------------0--------------0-1------0-|
--------------------------------0--0h2---|
----------0h3----3-----------------------|
----------------------------3------------|

--0h2---2h3/5---------------------------|
------3--------0h1-------1h3p1p0---3----|
-2-----------------0---0-----------0--1-|
--------------------------------------0-|
---------------0h3---3------------------|
---------------------------------3------|
Tap to rate this tab
 
# A B C D E F G H I J K L M N O P Q R S T U V W X Y Z