Song name
# A B C D E F G H I J K L M N O P Q R S T U V W X Y Z

City And Colour - Deaths Song tab

Tuning: Standard
Capo: None

Credit to lamerestforte for laying down the foundation. I had this figured by ear but 
was lazy to submit a daunting tab so copy and pasted at his discretion. Corrected the 
intro and added a few flairs. Any and all corrections feel free

to email me at damian78702@yahoo.com or sound off in the comments section.

The intro/verse:

e|---2h3-2-------------------------------------------------------------------------------------||
B|---------3/5/3p0--------------------------------2h3--3/5/3p0---------------------------------||
G|---------------------4H2-0-----4H2-0-----4H2-0-------------------2-0-----2-0-----2-0---------||
D|-------------------0---------0---------0-----------0-----------0-------0-------0-------------||
A|---------------------------------------------------------------------------------------------||
E|-----------------3---------3---------3-----------------------0-------0-------0---------------||




H = hammer off
h = hammer on
/ = Slide


Repeat through song


Chords used: You can even do a walk down from G to ?(chord name escapes me atm)but its 
not necessary. I also put the hammer on and offs that Dallas occasionally does that makes 
it sound like you know what you're doing.

   G         ?     Em
|---3-----|--3--|---0---|
|---3-----|--3--|---0---|
|---------|-----|---0---|
|---------|-----|-0h2H0-|
|-0h2H0---|-----|---2---|
|---3-----|--2--|-------|


               Gm7
What becomes of me
              ? Em7
When you stop listening?
              Gm7
Do I disappear into the silence?
             ? Em7
Or return from the void with brand new life?

               Gm7
Will I find a resting place?
              ? Em7
Somewhere to wash my hands and face
                Gm7
Gathering the harvest for all I need
              ? Em7
Collapsing into this place of ease

               Gm7
Iím singing my death song
              ? Em7
Singing my death song
               Gm7
Singing my death song
              ? Em7
This is my death song

(intro only)
Oh oh oh oh oh
Oh oh oh oh oh
Oh oh oh oh oh
Oh oh oh oh oh oh oh

               Gm7
Singing my death song
             ?  Em7
Singing my death song
               Gm7
Singing my death song
             ?  Em7
Singing my death song
               Gm7
Singing my death song
             ?  Em7
Singing my death song
               Gm7
Singing my death song
             ?  Em7
This is my death song

            Gm7
Oh oh oh oh oh
           ? Em7
Oh oh oh oh oh
            Gm7 (hold)
Oh oh oh oh oh
           ? Em7 (fade)
Oh oh oh oh oh oh oh
Tap to rate this tab
 
# A B C D E F G H I J K L M N O P Q R S T U V W X Y Z