Song name
# A B C D E F G H I J K L M N O P Q R S T U V W X Y Z

City And Colour - Waiting tab

Email: holden_monaro12@hotmail.com

Song: Waiting...
Band: City and Colour
Album: Bring Me Your Love

I have seen too many people attempt to tab this and all of them have been slightly 
off and I believe I know why, his tuning. He detunes the B string down to an A. 
The whole song follows the same strumming/rhythmic pattern but feel free to 
improvise, the same with fills such as Dallas uses.
Please let me know what you think!

Tuning (E A D G A E) - make sure this is your tuning
Capo 2nd (chords relative to capo)


INTRO (begin on an upstroke)
e|----0----0--0-0-0----0--0-0-0----0--0-0-0----0--0-0-------|
A|----2----2--0-0-2----2--0-0-2----2--0-0-2----2--0-0-------|
G|----0----0--0-0-0----0--0-0-0----0--0-0-0----0--0-0-------|
D|----2-2--2--2-2-2-2--2--2-2-2-2--2--2-2-2-2--2--2-2-------|
A|------3--3--3-3-3-3--3--3-3-3-3--3--3-3-3-3--3--3-3-------|
E|------3--3--3-3-3-3--3--3-3-3-3--3--3-3-3-3--3--3-3-------|

|-------0--0-0-0----0--0-0-0----0--0-0-0----0--0-0------|
|-------0--0-0-0----0--0-0-0----0--0-0-0----0--0-0------|
|--0----0--0-0-0----0--0-0-0----0--0-0-0----0--0-0------|
|--0----0--0-0-0-4--4--0-0-0----0--0-0-0----0--0-0------|
|--2-2--2--0-0-2-2--2--0-0-2-2--2--0-0-2-2--2--0-0------|
|--3-3--3--3-3-3-3--3--3-3-3-3--3--3-3-3-3--3--3-3------|



VERSE (almost the same as intro, without the little fill)
|---0----0--0-0-0----0--0-0-0----0--0-0-0----0--0-0-----|
|---2----2--0-0-2----2--0-0-2----2--0-0-2----2--0-0-----|
|---0----0--0-0-0----0--0-0-0----0--0-0-0----0--0-0-----|
|---2-2--2--2-2-2-2--2--2-2-2-2--2--2-2-2-2--2--2-2-----|
|-----3--3--3-3-3-3--3--3-3-3-3--3--3-3-3-3--3--3-3-----|
|-----3--3--3-3-3-3--3--3-3-3-3--3--3-3-3-3--3--3-3-----|

|-------0--0-0-0----0--0-0-0----0--0-0-0----0--0-0------|
|-------0--0-0-0----0--0-0-0----0--0-0-0----0--0-0------|
|--0----0--0-0-0----0--0-0-0----0--0-0-0----0--0-0------|
|--0----0--0-0-0----0--0-0-0----0--0-0-0----0--0-0------|
|--2-2--2--0-0-2-2--2--0-0-2-2--2--0-0-2-2--2--0-0------|
|--3-3--3--3-3-3-3--3--3-3-3-3--3--3-3-3-3--3--3-3------|



CHORUS
|-----0--0-0-0----0--0-0-0----0--0-0-0----0--0-0-0------|
|-----0--0-0-0----0--0-0-0----0--0-0-0----0--0-0-0------|
|--0--0--0-0-0-0--0--0-0-0-0--0--0-0-0-0--0--0-0-0------|
|--2--2--2-2-2-2--2--2-2-2-0--0--0-0-0-0--0--0-0-0------|
|--2--2--2-2-2-2--2--2-2-2-2--2--0-0-2-2--2--0-0-0------|
|--0--0--0-0-0-0--0--0-0-0-3--3--3-3-3-3--3--3-3-3------|
                                                          
|-----0--0-0-0----0--0-0-0----0--0-0-0----0--0-0-0------|
|-----0--0-0-0----0--0-0-0----0--0-0-0----0--0-0-0------|
|--0--0--0-0-0-0--0--0-0-0-0--0--0-0-0-0--0--0-0-0------|
|--4--4--4-4-4-4--4--4-4-4-2--2--2-2-2-2--2--2-2-2------|
|--5--5--5-5-5-5--5--5-5-5-3--3--3-3-3-3--3--3-3-3------|
|--5--5--5-5-5-5--5--5-5-5-3--3--3-3-3-3--3--3-3-3------|



POST-CHORUS
|--0-0-0-x-0-0--------0-0-0-x-0-0--------|
|--0-0-0-x-0-0--------0-0-0-x-0-0--------|
|--0-0-0-x-0-0--------0-0-0-x-0-0--------|
|--4-4-4-x-2-2--------4-4-4-x-2-2--------|
|--5-5-5-x-3-3--------5-5-5-x-3-3--------|
|--5-5-5-x-3-3--------5-5-5-x-3-3--------|



BRIDGE
|-----0--0-0-0----0--0-0-0----0--0-0-0----0--0-0-0------|
|-----0--0-0-0----0--0-0-0----0--0-0-0----0--0-0-0------|
|--0--0--0-0-0-0--0--0-0-0-0--0--0-0-0-0--0--0-0-0------|
|--4--4--4-4-4-4--4--4-4-4-2--2--2-2-2-2--2--2-2-2------|
|--5--5--5-5-5-5--5--5-5-5-3--3--3-3-3-3--3--3-3-3------|
|--5--5--5-5-5-5--5--5-5-5-3--3--3-3-3-3--3--3-3-3------|

|-----0--0-0-0----0--0-0-0----0--0-0-0----0--0-0-0------|
|-----0--0-0-0----0--0-0-0----0--0-0-0----0--0-0-0------|
|--0--0--0-0-0-0--0--0-0-0-0--0--0-0-0-0--0--0-0-0------|
|--2--2--2-2-2-2--2--2-2-2-0--0--0-0-0-0--0--0-0-0------|
|--2--2--2-2-2-2--2--2-2-2-2--2--0-0-2-2--2--0-0-0------|
|--0--0--0-0-0-0--0--0-0-0-3--3--3-3-3-3--3--3-3-3------| 



End on:
|--0---|
|--0---|
|--0---|
|--2---|
|--2---|
|--0---|


Song Order:
INTRO
VERSE x4
CHORUS x2
POST-CHORUS
VERSE x4
CHORUS x2
BRIDGE x2
CHORUS (vocal only)
CHORUS x3
END CHORD
Tap to rate this tab
# A B C D E F G H I J K L M N O P Q R S T U V W X Y Z