Song name
# A B C D E F G H I J K L M N O P Q R S T U V W X Y Z

City And Colour - Sometimes I Wish tab

-------------------------------------------------------------------------------
                             Sometimes (I Wish) - City & Colour
-------------------------------------------------------------------------------
Tabbed by: ColoursBleed
E-mail: chaxter123@gmail.com

Tuning: Standard Tuning capo on 6th Fret

e|---------------------------------------------------------------------------|
B|-------------------------------3-2--------3-2-------------3-2--------------|
G|----------2-----------2---2h4------2----------2-------2-4-----2---------2--|
D|----2h4-4---4---2h4-4---4------------4----------4-2-4-----------4-2h4-4----|
A|---------------------------------------------------------------------------|
E|---------------------------------------------------------------------------|

e|----------------------------------------------------22-0-------------------|
B|--------------------3-2-------3---3-2--------3-2---------3-2---------------|
G|----2---2---2h4-4-------2-2h4---4-----2--2h4-----2-----------2-------------|
D|--4---4---4----------------------------------------------------4p2p0-2-4---|
A|---------------------------------------------------------------------------|
E|---------------------------------------------------------------------------|

e|---------------------------------------------------------------------------|
B|----------3-2--------------------------------------------------------------|
G|--2---2h4-----2-------2----------------------------------------------------|
D|----4-----------4-2-4---4--------------------------------------------------|
A|---------------------------------------------------------------------------|
E|---------------------------------------------------------------------------|


************************************

| /   slide up
| \   slide down
| h   hammer-on
| p   pull-off
| ~   vibrato
| +   harmonic
| x   Mute note
| b   Bend
| pb  Pre-bend
| br  Bend release
| pbr Pre-bend release
| brb Bend release bend

************************************
Tap to rate this tab
# A B C D E F G H I J K L M N O P Q R S T U V W X Y Z