Song name
# A B C D E F G H I J K L M N O P Q R S T U V W X Y Z

City And Colour - Sometimes tab

Sitting at home one night and figured out the correct way for this tab, Ive seen the 
other tabs on here in the Standard Tuning and Capo 6. Which is pretty much the right way, 
but one difference. The A string is tuned a full step up to B.

Capo 6
(/) Slide Up  (\) Slide Down  (h) Hammer On  (p) Pull Off  (b) Bend (r) Release (v) Vibrato

INTRO
E|----------------0----------------------------0----|
B|----------------0----------------------------0----|
G|-----------2-4- 0----2/4\2p0-----------------0----|   Strum and let Chords ring 1x
D|---0-2-2h4------4------------2/4\2p0---------0----|    Strum the Chords softly 3x
B|--0-------------2--------------------3/5p0-- 0----|
E|----------------2--------------------------3-3----|

VERSE
E|-- 0 0------------------0-0----------- |
B|-- 0 0------------------0-0------------|
G|-- 0 0----------------- 0-0------------|  4x
D|-- 4 4----------------- 0-0------------|
B|-- 0h2----------------- 0-0------------|
E|-- 0h2----------------- 0h3------------|

Then again the intro fill after Chorus? ( Which will be tabbed and updated soon )

E|---------------------|
B|---------------------|
G|-----------2-4-------|
D|---0-2-2h4-----------|
B|--0------------------|
E|---------------------|

Then repeat Verse, Chorus? then Outro. ( Which is Verse until faded out )
Tap to rate this tab
# A B C D E F G H I J K L M N O P Q R S T U V W X Y Z