Song name
# A B C D E F G H I J K L M N O P Q R S T U V W X Y Z

City And Colour - Sorrowing Man tab

Chords made after this: https://www.youtube.com/watch?v=c3R7eihUuyw

Standard tuning


Verse
e|---------------0----0----0----------------------------------------|
B|---------------0----3----0----------------------------------------|
G|---------------0----0----0----0-----------------------------------|
D|--2----0p2p0---0----4----0----2-----------------------------------|
A|--2----2-------2-s--0----0----2-----------------------------------|
E|--0----0-------3-s--5----3s5--0-----------------------------------|


Chorus
e|----0----0-s--0-s--0-----0----0-----------------------------------|
B|----0----0-s--3-s--7-----1----1-----------------------------------|
G|----0----0-s--0-s--0-----0----0-----------------------------------|
D|----2----0-s--4-s--0-----2----0p2p0-------------------------------|
A|----2----2-s--0-s--10----3----3-----------------------------------|
E|----0----3-s--5-s--11----3----3-----------------------------------|

For Solo plays, acoustic shit.
Tap to rate this tab
 
# A B C D E F G H I J K L M N O P Q R S T U V W X Y Z