Guitaretab - guitar tabs
Song name
# A B C D E F G H I J K L M N O P Q R S T U V W X Y Z

City And Colour - When She tab

---0------0-----0-----0------------------------------------|
---0------0-----0-----0------------------------------------|
---0------0-----0-----0------------------------------------|
---2------4-----5-----5------------------------------------|
---2------3-----5-----4------------------------------------|
---0------0-----0-----0------------------------------------|
[ Tab from: http://www.guitaretab.com/c/city-and-colour/59996.html ]
-----0---------2-----0---------2-----x-----------------------|
-----1h3------0-----1---h3----0-----0-----------------------|
-----0---------0-----0---------0-----0-----------------------|repeat
-----2---------2-----2---------2-----2-----------------------|
-----3---------2-----3---------2-----0-----------------------|
-----3---------0-----3---------0-----1-----------------------|

other part
-----0--------0-----------------------0----0--------------------------|
-----1h3------0-----------------------1----3--------------------------|
-----0--------2---s-4---4-------------0----2--------------------------|
-----2--------2---s-4-s-5----(X3)-----2----0--------------------------|
-----3--------0-----------------------3----0--------------------------|
-----3--------0-----------------------3-------------------------------|
Related for When She tab