Guitaretab - guitar tabs
Song name
# A B C D E F G H I J K L M N O P Q R S T U V W X Y Z

City And Colour - This Sudden Injury tab

---------------------------------------------------------------------------------------| 
         THIS SUDDEN INJURY - Dallas Green
---------------------------------------------------------------------------------------|
Tabbed by: Katie
Email: thiscityishaunted@hotmail.com

Tuning: Standard (EADGBe)
Im not putting how many times you play it, or anything like that

*VERSE*
Stay the night, and I promise I wonít die
Without you there and I canít and I canít close my eyes
But I canít leave myself tonight
And I was still lost inside (when he says "inside", dont palm mute)

(Repeat this till the end of the verse)
PM~~~~~~~~~~~~~~~~~~~~~~~~~~~~~~~~~|
e|---------------------------------|
B|---------------------------------|
G|------8-8--4-4--0-0--0-0-0--0----|
D|-6-6--6-6--6-6--2-2--2-2-2--2----|
A|-6-6--6-6--6-6--2-2--2-4-4--2----|
E|-4-4--4-4--4-4--0-0--0-0-0--0----|

*CHORUS*
And now waiting for everything
To fall into place
Waiting for everything
To fall

(repeat-------------------------------------| then end on this)
e|-0-0-0-0-0-0-2-2--0-0-0-0-0-0-2-2-|-0~----|
B|-0-0-0-0-0-0-0-0--0-0-0-0-0-0-0-0-|-0~----|
G|-0-0-0-8-8-8-0-0--0-0-0-8-8-8-0-0-|-8~----|
D|-4-4-4-6-6-6-2-2--4-4-4-6-6-6-2-2-|-6-----|
A|-4-4-4/6-6-6-2-2--4-4-4/6-6-6-2-2-|-6~----|
E|-2-2-2/4-4-4-0-0--2-2-2/4-4-4-0-0-|-4~----|


*VERSE 2*
Most nights I cry myself awake
And she waits, my love, my love falls away
Well I sit alone, again today
Wonder why everything went this way
[ Tab from: http://www.guitaretab.com/c/city-and-colour/60000.html ]
(Repeat this till the end of the verse)
e|---------------------------------|
B|---------------------------------|
G|------8-8--4-4--0-0--0-0-0--0----|
D|-6-6--6-6--6-6--2-2--2-2-2--2----|
A|-6-6--6-6--6-6--2-2--2-4-4--2----|
E|-4-4--4-4--4-4--0-0--0-0-0--0----|

*CHORUS*
And now waiting for everything
To fall into place
Waiting for everything
To fall into place
Waiting for everything
To fall

(repeat-------------------------------------| then end on this)
e|-0-0-0-0-0-0-2-2--0-0-0-0-0-0-2-2-|-0~----|
B|-0-0-0-0-0-0-0-0--0-0-0-0-0-0-0-0-|-0~----|
G|-0-0-0-8-8-8-0-0--0-0-0-8-8-8-0-0-|-8~----|
D|-4-4-4/6-6-6-2-2--4-4-4-6-6-6-2-2-|-6-----|
A|-4-4-4/6-6-6-2-2--4-4-4/6-6-6-2-2-|-6~----|
E|-2-2-2/4-4-4-0-0--2-2-2/4-4-4-0-0-|-4~----|

*BREAKDOWN*
PM~~~~~~~~~~~~~~~~~~~~~~~~~~~~~~~~~~~~~~~|
e|---------------------------------------|
B|---------------------------------------|
G|---------------------------------------|
D|-6-6-6\4-4-4-2-2-2-2-2-2-2-0-4-4/6-----|
A|-6-6-6\4-4-4-2-2-4-2-2-4-2-1-4-4/6-----|
E|-4-4-4\2-2-2-0-0-0-0-0-0-0-0-2-2/4-----|

And I cry myself awake
And I cry myself awake

e|---------------------------------------|
B|---------------------------------------|
G|---------------------------------------|
D|-6-6-6\4-4-4-2-2-2-2-2-2-2-0-4-4/6-----|
A|-6-6-6\4-4-4-2-2-4-2-2-4-2-1-4-4/6-----|
E|-4-4-4\2-2-2-0-0-0-0-0-0-0-0-2-2/4-----|

*END*
e|--0~-|
B|--0~-|
G|--8~-|
D|--6~-|
A|--6~-|
E|--4~-|

| /  slide up
| \  slide down
| h  hammer-on
| p  pull-off
| ~  vibrato
| +  harmonic
| x  Mute note
===============================================================================
Related for This Sudden Injury tab