Song name
# A B C D E F G H I J K L M N O P Q R S T U V W X Y Z

City And Colour - Off By Heart tab

----------------------------------------------------------------------------
	            ...OFF BY HEART - Dallas Green
----------------------------------------------------------------------------
Tabbed by:  Alex
Email: midnight_debaucheries@hotmail.com

Tuning: STANDARD

Capo on 2nd Fret, tabbed frets are relative to capo.

You might want to listen to the song to figure out the perfect strumming pattern (it's 
hard to figure it out from tabs, but I tried) since he does change it at one point near 
end, but it isn't that difficult.

e|-----0-0--000--0-0--000---0-0--000--0000/0000-----------------|
B|-----0-0--000--0-0--000---0-0--000--0000/0000-----------------|
G|-----0-0--000--0-0--000---0-0--000--0000/0000-----------------|
D|-----5-5--555--5-5--555---5-5--555--5555/7777-----------------|
A|-----5-5--555--5-5--555---5-5--555--5555/7777-----------------|
E|-----3-3--333--2-2--222---3-3--333--2222/5555-----------------|

That's pretty much the entire song.  Just repeat!

Questions or comments or anything can be sent to midnight_debaucheries@hotmail.com.  
rate it!

-Alex


| /  slide up
| \  slide down
| h  hammer-on
| p  pull-off
| ~  vibrato
| +  harmonic
| x  Mute note
============================================================================
Tap to rate this tab
# A B C D E F G H I J K L M N O P Q R S T U V W X Y Z