Song name
# A B C D E F G H I J K L M N O P Q R S T U V W X Y Z

City And Colour - Missing Serraville tab

Song: Missing (Serraville)
Artist: Dallas Green
Album: The Death of Me EP
Tuning: CGDGBE
Capo: 4
Tabbed By: Brian ( decidingtoniteslove@hotmail.com )

p= pull-off
h= hammer-on
/= slide up
\= slide down


Strum Slowly
[ Rythem Guitar For Intro ]    Bottom Strings always open!

 C[-2------------4-----------0------0-------0--0--0--0--0--44-44---]
G[-4------------4-----------0------0-------0--0--0--0--0--44-44----]

D[-4------------4-----------4------4-------0--0--0--0--0--44-44-]
G[--------------------------------------------------------------]
B[---------------------------------3---5---7--5--3--5--7--------]
E[--------------------------------------------------------2---0-]

Listen To Song For Strumming Pattern
[ Rythem Guitar For Whole Song ]

( so...)       (there...)  (your ghost...)   (air.)
C[--4--------------0--------------2------------4--]
G[--4--------------0--------------4------------4--]
D[--4--------------4--------------4------------4--]
G[------------------------------------------------]
B[------------------------------------------------]
E[------------------------------------------------]


[ Lead Guitar For Intro ]

C[----------------------------------------------------]
G[----------------------------------------------------]
D[----------------------------------------------------]
G[--------2/4-----2/4---------------------------------]
B[-----3p--------------3-5-------------3---3/5--3-----]
E[-3-2---------------------2h3-5-3-2--3p2-------------]

im pretty sure thats how it goes. i could be a litte wrong
but mainly thats the feel of it.

it is somewhat possible to play both parts at the same time
or somewhat at least. but with the slides are mostly on a chord switch so its hard to
both rythem and the lead timing right.  and im almost postive its a 2 guitar part song
he double tracked together so anyways here's the song, i tried many different tunings 
finally stumbled on the right thing
and figured out the chords he used and tried getting the lead as best i could so if any
you wanna message me feel free.
Tap to rate this tab
# A B C D E F G H I J K L M N O P Q R S T U V W X Y Z