Song name
# A B C D E F G H I J K L M N O P Q R S T U V W X Y Z

City And Colour - Sensible Heart tab

Help us improve GuitareTab! Take a short survey!
City & Colour (Dallas Green) - Sensible Heart - From "Bring Me Your Love" (2008)


Standard Tuning

Chords:
Em: 022000
D: 200320
C: 332000 or 332010


Intro

e |-----3/2p0-----------------------------------|
B |----------0----3/5------0--------------------|
G |-0----------------------0---0/2--2h0---0-----|
D |-2----------------------2---2----2-----------|
A |-2------------------0h3-3---3----3-----------|
E |-0--0-------2-----------3---3----3----3--0---|

e |--3/2p0--------------------------------------|
B |-------0---3/5------0----------0-0-----------|
G |--------------------0--2p0--0h2--0-----------|
D |--------------------2-------2----------------|
A |----------------0h3-3-------3----------------|
E |---------2----------3-------3-------0--------|


e |--3/2p0--------------------------------------|
B |-------0---3/5------0----------0-0-----------|
G |--------------------0--2p0--0h2--0-----------|
D |--------------------2-------2----------------|
A |----------------0h3-3-------3----------------|
E |---------2----------3-------3-------0--------|


e |---------------------------------------------|
B |-----0---3/5-----0---------------------------|
G |--0h2------------0h2p0-0---------------------|
D |-----------------2---------------------------|
A |-------------0h3-3---------------------------|
E |-------2---------3---------------------------|


(Play the chords like shown above. Add your own fills around the C chord or just copy Dallas')

Em    D     C
I get so distracted
Em      D         C
By some peoples reactions
Em           D      C
That I don't see my own faults
              Em   D   C  (play like the last part of the intro)
For what they are
              Em   D   C  (same here)
For what they are

At times so self destructive
With no intent on moulding
But behind this emotion,
There lies a sensible heart
A sensible heart

See I'm no king
I wear no crown
But desperate times
Seem over now
But still I weaken somehow
It tears me apart
It tears me apart

I hope to learn as time goes by
That I should trust what's deep inside
Burning bright, oh burning bright
My sensible heart
My sensible heart
My sensible heart
My sensible heart

For questions or comments: Vincent_p1002@hotmail.com
Related for Sensible Heart tab