Song name
# A B C D E F G H I J K L M N O P Q R S T U V W X Y Z

City And Colour - How Come Your Arms Are Not tab

Tabbed by: David
Tuning: Standerd
You need a capo on the 4th fret.....

(Intro)
e|-0000--00-000-000-----------------------------|
B|-0000--11-111-333-----------------------------|
G|-0000--00-000-000-----------------------------|
D|-2222--22-222-222-----------------------------|x8
A|-2222--22-222-222-----------------------------|
E|-0000--00-000-000-----------------------------|

(Chorus)
 no surprise.........
e|-0000--00-00000-000-----------------------------|this strumming pattern is
B|-0000--11-11111-333-----------------------------|a bit different
G|-0000--00-00000-000-----------------------------|
D|-2222--22-22222-222-----------------------------|x8
A|-3333--33-33333-333-----------------------------|
E|-0000--00-00000-000-----------------------------|

Well thats about the whole song its very easy to learn.....Plz rate!!!
Tap to rate this tab
# A B C D E F G H I J K L M N O P Q R S T U V W X Y Z