Song name
# A B C D E F G H I J K L M N O P Q R S T U V W X Y Z

City And Colour - Comin Home Live tab

----------------------------------------------------------------------------
			     SONG NAME - Band Name
----------------------------------------------------------------------------
Tabbed by:k8t11

Tuning: Standard
Capo 2nd Fret

          listen to song or watch video to find out strumming and timing
          (http://uk.youtube.com/watch?v=d5zTFIz2plU)

Intro

e|--------------------------|----0--------------0------0-------|
B|----3/5\3p0---------------|----0--------------3------1p0-----|
G|---------------2/4\2p0----|----0--------------0------0-------|
D|--------------------------|----2--------------4------2-------|
A|--------------------------|----2--------------5------3-------|
E|--------------------------|----0--------------5------3-------|


e|--------------------------|----0---12*-----------0--0----0---|
B|----1/3\1p0---------------|----0---12*-----------3--1p0--3---|
G|---------------2/4\2p0----|----0---12*-----------0--0----0---|
D|--------------------------|----2---12*-----------4--2----4---|
A|--------------------------|----2---12*-----------5--3----5---|
E|--------------------------|----0---12*-----------5--3----5---|


| /  slide up
| \  slide down
| h  hammer-on
| p  pull-off
| *  harmonic

=============================================================================
Tap to rate this tab
# A B C D E F G H I J K L M N O P Q R S T U V W X Y Z