Song name
# A B C D E F G H I J K L M N O P Q R S T U V W X Y Z

City Boys Band - Nya Asem Hwe tab

Standard Tuning

Played with tang/trembl effect, but sounds sweet with or without, this tab follows the 
first guitar only.
Enjoy.

| /  slide up
| \  slide down
| h  hammer-on
| p  pull-off


                                                                  Drums Enter

e-/8-6-4---/8-6-4-3----6-p-4-p-3---4-p-3---3--------------------------------|
B-------------------4--------------------6---4------------------------------|
G---------------------------------------------------3---4-p-3-----3---3-----|
D-------------------------------------------------3---3-------5---------3---|
A-----------------------------------------------5-------3-------3---5-----5-|
E---------------------------------------------------------------------------|

              (*************)
e--------------4p-----------------------------------------------------------|
B-4-----4---------4p-4---6--------3---4-p-3-----3------3----4-----4-----3---|
G---5--------3---------5---5----3---3-------5--------3---3----5-------3---3-|
D-3---3----5---------3--------5-------3-------3----5--------3---3---5-------|
A---------------------------------------------------------------------------|
E---------------------------------------------------------------------------|

Repeat The following (V) for the rest of the song. Occasionally using the riff marked by 
the section of (*) to spice it up a little.

e--------------------------------------------------------|
B-4-----4-----3----4-p-3-----3------3----4-----4-----3---|
G---5-------3---3--------5--------3---3----5-------3---3-|
D-3---3---5--------3-------3----5--------3---3---5-------|
A--------------------------------------------------------|
E--------------------------------------------------------|
Tap to rate this tab
# A B C D E F G H I J K L M N O P Q R S T U V W X Y Z