Song name
# A B C D E F G H I J K L M N O P Q R S T U V W X Y Z

City Harmonic - Holy Wedding Day tab

Holy (Wedding Day) - The City Harmonic
Tabbed by Justin Chung
Standard (Capo 3)

Verse 1 & 2:

E|------------------------0--------3--------|-3-------------|
B|------------------------0--------3--------|-3-------------|
G|------------------------0--------0--------|-0-------------|
D|------------------------2--------2--------|-0-------------|
A|------------------------2--------3--------|-2-------------|
E|------------------------0-----------------|-3-------------|

This is the story of the Son... hanging...for me

This is the story of a  bride... waiting...  day

E|-------------------0--------3--------|-2-------------|
B|-------------------0--------3--------|-3-------------|
G|-------------------0--------0--------|-2-------------|
D|-------------------2--------2--------|-0-------------|
A|-------------------2--------3--------|-X-----------2-|
E|-------------------0-----------------|-2-------------|

But it ends with a bride... wedding...  sea

Anticipation welling up...  groom...    king


Pre-chorus:

E|-3--------2-----|-0--------2--------|-3----------------|
B|-3--------3-----|-0--------3--------|-3----------------|
G|-0--------2-----|-0--------2--------|-0----------------|
D|-2--------0-----|-2--------0--------|-0----------------|
A|-3-----------3--|-2-----------------|-2----------------|
E|----------------|-0-----------------|-3----------------|

      Oh...is your sting... be there... Holy

E|-3--------------|-3-----------------|-3--------2-------|-3----------|
B|-3--------------|-3-----------------|-3--------3-------|-3----------|
G|-0--------------|-0-----------------|-0--------2-------|-0----------|
D|-2--------------|-0-----------------|-2--------0-------|-0----------|
A|-3--------------|-2-----------------|-3----------------|-2----------|
E|----------------|-3-----------------|------------------|-3----------|

   Holy            Ho-                 -oly      is the   Lord


Pre-chorus 2:

E|-3--------2-----|-0--------2--------|-3----------------|
B|-3--------3-----|-0--------3--------|-3----------------|
G|-0--------2-----|-0--------2--------|-0----------------|
D|-2--------0-----|-2--------0--------|-0----------------|
A|-3-----------3--|-2-----------------|-2----------------|
E|----------------|-0-----------------|-3----------------|

      Oh...is your sting... be there... Holy

E|-3--------------|-3-----------------|-3--------2-------|-3----------|
B|-3--------------|-3-----------------|-3--------3-------|-3----------|
G|-0--------------|-0-----------------|-0--------2-------|-0----------|
D|-2--------------|-0-----------------|-2--------0-------|-2----------|
A|-3--------------|-2-----------------|-3----------------|-3----------|
E|----------------|-3-----------------|------------------|------------|

   Holy            Ho-                 -oly      is the   Lord

Instrumental

Rhythm Guitar

E|-3-----------2--|-0--------------3-|-3---------------|-2-------------|
B|-3-----------3--|-0--------------3-|-3---------------|-3-------------|
G|-0-----------2--|-0--------------2-|-0---------------|-2-------------|
D|-2-----------0--|-2--------------0-|-0---------------|-0-------------|
A|-3--------------|-2--------------X-|-2---------------|---------------|
E|----------------|-0--------------2-|-3---------------|---------------|

Lead Guitar

E|----------------|------------------|-----------------|---------------|
B|-8----------10--|-11------------13-|-15-----------18-|-10---------11-|
G|----------------|------------------|-----------------|---------------|
D|----------------|------------------|-----------------|---------------|
A|----------------|------------------|-----------------|---------------|
E|----------------|------------------|-----------------|---------------|

Lead Guitar 2: (Played over Lead Guitar 1)

E|----------------|------------------|-----------------|---------------|
B|-15----------16-|-15------------16-|-15-----------18-|-10---------16-|
G|----------------|------------------|-----------------|---------------|
D|----------------|------------------|-----------------|---------------|
A|----------------|------------------|-----------------|---------------|
E|----------------|------------------|-----------------|---------------|

Chorus:

E|-3-----------2--|-0--------------3-|-3---------------|-2-------------|
B|-3-----------3--|-0--------------3-|-3---------------|-3-------------|
G|-0-----------2--|-0--------------2-|-0---------------|-2-------------|
D|-2-----------0--|-2--------------0-|-0---------------|-0-------------|
A|-3--------------|-2--------------X-|-2---------------|---------------|
E|----------------|-0--------------2-|-3---------------|---------------|

      Holy, holy  |       holy, holy |      holy, holy | Is the...Almighty

Who was       And | is           And | is           to | come

This is the story of the Son of God hanging on the cross for me
And it ends with a bride and groom and a wedding by a glassy sea
This is the story of the a bride in white, singing on her wedding day
Of the God who was and is to stand before a bride who sings

Outro:

E|-3--------------|------------------|-----------------|---------------|
B|-3--------------|------------------|-----------------|---------------|
G|-0--------------|------------------|-----------------|---------------|
D|-2--------------|------------------|-----------------|---------------|
A|-3--------------|------------------|-----------------|---------------|
E|----------------|------------------|-----------------|---------------|

Holy Holy, Holy Holy, Holy Holy, is the Lord Almighty



Chords


Holy (Wedding Day) - The City Harmonic
Tabbed by Justin Chung
Standard (Capo 3)

Verse 1:
                     Em          C           G
This is the story of the Son of God, hanging on the cross for me
                    Em                     C                    D
But it ends with a bride and groom and a wedding by a glassy sea

Pre-Chorus:
(Em) C       D   (C)  Em
      O death where is your sting
           D
Cause I'll be there singing
G     C     G  C Dsus  D  G   C   G   C
Holy, Holy, Holy is the Lord

Verse 2:
This is the story of a bride in white, waiting on her wedding day
Anticipation welling up inside while the groom is crowned a king

Pre-Chorus 2:
(Em) C         D   (C)  Em
      O death where is your sting
            D
Cause we'll be there singing
G     C     G  C Dsus  D  C
Holy, Holy, Holy is the Lord

Chorus:    C  (D)  Em  (D/F#)  G  D
Holy Holy, Holy Holy,
Holy Holy, is the Lord Almighty x2
Who was and is, And is to come x2

Chorus 2: C  (D)  Em  (D/F#)  G  D

Outro:
C
Holy, Holy, Holy, Holy, Holy, holy is the Lord Almighty
Tap to rate this tab
# A B C D E F G H I J K L M N O P Q R S T U V W X Y Z