Song name
# A B C D E F G H I J K L M N O P Q R S T U V W X Y Z

City Lights - Hang Out tab

First tab, its in drop D and sounds pretty right to me lemme know any feedback :) 
http://www.myspace.com/citylights

Guitar 1
intro + verse
|----------------------------------------------------|
|----------------------------------------------------|
|----------------------------------------------------|
|---0--0-0--00-00-------5----------------------------|
|---0--0-0--00-00-------5--(intro)-------------------|
|---0--0-0--00-00-------5----------------------------|

Guitar 2
intro
|-----------------------------------------------------|
|-----------------------------------------------------|
|-----------------------------------------------------|
|---7-------------------------------------------------|
|---x-------------------------------------------------|
|---5-------------------------------------------------|repeatedly

Guitar 3
(3rd)intro
|-----------------------------------------------------|
|--7------5-------8-----------------------------------|
|---7-x4---4-x4----7-x4-------------------------------|
|-----------------------------------------------------|
|-----------------------------------------------------|
|-----------------------------------------------------|

Pre-chorus
|----------------------------------/------------------|
|----------------------------------/------------------|
|---------------------------1st----/-2nd--------------|
|---22-22-2-2---55-55-5-5----0-----/-0------5-4-5/7---|
|---22-22-2-2---55-55-5-5----0-x10-/-0-x5---5-4-5/7---|
|---22-22-2-2---55-55-5-5----0-----/-0------5-4-5/7---| Twice

Chorus
|-----------------------------------------------------|
|-----------------------------------------------------|
|-----------------------------------------------------|
|--5-5-4-2-2---2-0-0--2-5-5---7-----------------------|
|--5-5-4-2-2---2-0-0--2-5-5---7-----------------------|
|--5-5-4-2-2---2-0-0--2-5-5---7-----------------------|

Breakdown
|-----------------------------------------------------|
|-----------------------------------------------------|
|-----------------------------------------------------|
|--0-7-0-5-4-0-2-2-2-5-4-2------------5-4-5/7---------|
|--0-7-0-5-4-0-2-2-2-5-4-2-----x9---------------------|
|--0-7-0-5-4-0-2-2-2-5-4-2----------------------------|

Chorus x2

Ending
|-----------------------------------------------------|
|-----------------------------------------------------|
|-----------------------------------------------------|
|---0~--7~--2~--5~------------------------0h5--0h7--0-|
|---0~--7~--2~--5~----let-chords-ring-----0h5--0h7--0-|
|---0~--7~--2~--5~------------------------0h5--0h7--0-|
Tap to rate this tab
# A B C D E F G H I J K L M N O P Q R S T U V W X Y Z