Song name
# A B C D E F G H I J K L M N O P Q R S T U V W X Y Z

City Lights - Lawnmower tab

This song is awesome, tune your guitar 1/2 step down, then drop D. Enjoy

Intro (lead)
d#|----------------------------|------------------------|
a#|----------------------------|------------------------|
f#|-13---9---13---9----9h11--x3|------4-----4-4---------|
c#|----9--------9-----9--------|----4-------4-4---------|
g#|----------------------------|--2---------2-2---------|
c#|----------------------------|------------------------|
                                 ^only on 4th time

Verse 1
d#|-------------------------------------------|
a#|-------------------------------------------|
f#|-2222222222222222-99999999-44444444--------|
c#|-2222222222222222-99999999-44444444--------| x4
g#|-0000000000000000-77777777-22222222--------|
c#|-------------------------------------------|
that I hung on to every word...

Pre Chorus
d#|---------------------------------------------------------------------|
a#|---------------------------------------------------------------------|
f#|-6666666666666666-2222222222222222-9999999999999999-4444444444444444-|
c#|-6666666666666666-2222222222222222-9999999999999999-4444444444444444-| x2
g#|-4444444444444444-0000000000000000-7777777777777777-2222222222222222-|
c#|---------------------------------------------------------------------|
And I just wanted you to know that...

Chorus pt 1.
d#|---------------------------------------------------------------|
a#|---------------------------------------------------------------|
f#|-22-2-222-2---22-2-222-66-6-666--22-2-222-2---44-4-444---------|
c#|-22-2-222-2---22-2-222-66-6-666--22-2-222-2---44-4-444---------|
g#|-00-0-000-0---00-0-000-44-4-444--00-0-000-0---22-2-222---------|
c#|---------------------------------------------------------------|
So don't forget me...
d#|-----------------------------------------------------------|
a#|-----------------------------------------------------------|
f#|-22-2-222-2---22-2-222-66-6-666--22-2-222-2---4-4-4-4------|
c#|-22-2-222-2---22-2-222-66-6-666--22-2-222-2---4-4-4-4------|
g#|-00-0-000-0---00-0-000-44-4-444--00-0-000-0---2-2-2-2------|
c#|-----------------------------------------------------------|
Don't bother calling...

Chorus pt 2. (rhythm)
d#|--------------------------------------|
a#|--------------------------------------|
f#|-222222-2-22222--999999--444444-------|
c#|-222222-2-22222--999999--444444-------| x2
g#|-000000-0-00000--777777--222222-------|
c#|--------------------------------------|
I regret I believed you...

(Lead)
e|-------------------------------------------------|
B|-------------------------------------------------|
G|-------------------------------------------------|
D|-----------Somebody else tab it------------------| x2
A|--------just fiddle around on the----------------|
E|---9th to 13th frets on mainly the G string------|


Pre Chorus
d#|---------------------------------------------------------------------|
a#|---------------------------------------------------------------------|
f#|-6666666666666666-2222222222222222-9999999999999999-4444444444444444-|
c#|-6666666666666666-2222222222222222-9999999999999999-4444444444444444-| x2
g#|-4444444444444444-0000000000000000-7777777777777777-2222222222222222-|
c#|---------------------------------------------------------------------|
And I just wanted you to know that...

Chorus pt 1.
d#|---------------------------------------------------------------|
a#|---------------------------------------------------------------|
f#|-22-2-222-2---22-2-222-66-6-666--22-2-222-2---44-4-444---------|
c#|-22-2-222-2---22-2-222-66-6-666--22-2-222-2---44-4-444---------|
g#|-00-0-000-0---00-0-000-44-4-444--00-0-000-0---22-2-222---------|
c#|---------------------------------------------------------------|
So don't forget me...
d#|-----------------------------------------------------------|
a#|-----------------------------------------------------------|
f#|-22-2-222-2---22-2-222-66-6-666--22-2-222-2---4-4-4-4------|
c#|-22-2-222-2---22-2-222-66-6-666--22-2-222-2---4-4-4-4------|
g#|-00-0-000-0---00-0-000-44-4-444--00-0-000-0---2-2-2-2------|
c#|-----------------------------------------------------------|

Breakdown
d#|------------------------------------------|
a#|------------------------------------------|
f#|-22222222--99999999--44444444--666--444---|
c#|-22222222--99999999--44444444--666--444---| x2
g#|-00000000--77777777--22222222--444--222---|
c#|------------------------------------------|
Ahh...

d#|------------------------------------------|------------|
a#|------------------------------------------|------------|
f#|-2222222222222222-666--2222222222222222---|-444--------|
c#|-2222222222222222-666--2222222222222222-x2|-444--------|
g#|-0000000000000000-444--0000000000000000---|-222--------|
c#|------------------------------------------|------------|
So don't forget me...                        ^only first time

End on:
d#|------------|
a#|------------|
f#|-4-------9--|
c#|-4-------9--|
g#|-2-------7--|
c#|------------|

Amazing song, be sure to download it and see the band sometime. Incredible album and 
this song is easily the best on the album. Comment if you see corrections!
Tap to rate this tab
 
# A B C D E F G H I J K L M N O P Q R S T U V W X Y Z