Song name
# A B C D E F G H I J K L M N O P Q R S T U V W X Y Z

City Of Caterpillar - A Little Change Could Go A Long Ways tab

E-|---------------------------------|
B-|---------------------------------|
G-|--------2-0------4-5---5-4-7-5-4-|
D-|------------2--------------------|
A-|--0------------------2-----------|
E-|--0-0----------------------------|

E-|-----------------------------------|
B-|-----------------------------------|
G-|--------2-0------4-5---5-4-12-10-9-|
D-|------------2----------------------|
A-|--0------------------2-------------|
E-|--0-0------------------------------|

E-|---------------------------------|
B-|---------------------------------|
G-|--------2-0------4-5---5-4-7-5-4-|
D-|------------2--------------------|
A-|--0------------------2-----------|
E-|--0-0----------------------------|

E-|---------------------------------|
B-|---------------------------------|
G-|--------2-0------4-5---5-4-5-7-9-|
D-|------------2--------------------|
A-|--0------------------2-----------|
E-|--0-0----------------------------|
Tap to rate this tab
# A B C D E F G H I J K L M N O P Q R S T U V W X Y Z