Guitaretab - guitar tabs
Song name
# A B C D E F G H I J K L M N O P Q R S T U V W X Y Z

City Sleeps - Not An Angel tab

-------------------------------------------------------------------------------
			     Not An Angel  City Sleeps
-------------------------------------------------------------------------------
Tabbed by: Bogardeth
Email: tamer_of_the_squirrels@yahoo.com

Tuning: Standard

*This song Desperately needed to be tabbed. This is just how I play it, I'm not saying 
is the best, I actually hope someone can make a better one. But for now, please enjoy!*


Guitar 1 (Intro/Verse 1)
e|-15----------|
B|----18-------|
G|-------17----| (Repeat until Chorus)
D|----------17-|
A|-------------|
E|-------------|

Guitar 2 (Intro/Verse 1)
e|------------------------------------------|
B|------------------------------------------|
G|------------------------------------------| (Repeat until Chorus)
D|-5555-6666666666666666-3333-55555555-3333-|
A|-3333-4444444444444444-1111-33333333-1111-|
E|------------------------------------------|


(Chorus 1)
e|----------------------------|
B|----------------------------|
G|-6-6--8-8--10-10-------8~---|
D|-6-6--8-8--10-10--8-8-8~---|
A|-4-4--6-6--8--8---8-8-6~---|
E|------------------6-6-------|

[ Tab from: http://www.guitaretab.com/c/city-sleeps/170492.html ]
(Verse 2)                                   (End with this on 4th Time)
e|-----------------------------------|           |----------|
B|-----------------------------------|           |----------|
G|-555-66666666-333-101010101010-88--| Repeat x4 |-88888888-|
D|-555-66666666-333-101010101010-88--|           |-88888888-|
A|-333-44444444-111-8-8-8-8-8-8--66--|           |-66666666-|
E|-----------------------------------|           |----------|


(Chorus 2)
e|--------------------------------------------|
B|--------------------------------------------|
G|-6666-8888-10101010-------8888888888888888--|
D|-6666-8888-10101010-8888--8888888888888888--|
A|-4444-6666-8-8-8-8--8888--6666666666666666--|
E|--------------------6666--------------------|

(Pre-Verse)
e|-----------------------|
B|-----------------------|
G|-6~--------------------|
D|-6~-4~-66666666666666--|
A|-4~-4~-66666666666666--|
E|----2~-44444444444444--|


(Chorus 3)
e|--------------------------------------------------------------|
B|--------------------------------------------------------------|
G|-66666666-88888888-1010101010101010----------8888888888888888-|
D|-66666666-88888888-1010101010101010-88888888-8888888888888888-|
A|-44444444-66666666-8-8-8-8-8-8-8-8--88888888-6666666666666666-|
E|------------------------------------66666666------------------|

(Outro)
e|-----------|------8~-8---------8~-8---------8~-8-----8--|
B|-----------|----9------9-----9------9-----9------9---9--|
G|-6~--------|-10-----------10-----------10-----------10--|
D|-6~-4~-6~--|--------------------------------------------|
A|-4~-4~-6~--|--------------------------------------------|
E|----2~-4~--|--------------------------------------------|


SONG ORDER:

Intro/Verse 1
Chorus 1
Verse 2 (x4)
Chorus 2 (x2)
Pre-Verse
Verse 2 (x4)
Chorus 3
Chorus 2 (x3)
Outro
Related for Not An Angel tab