Song name
# A B C D E F G H I J K L M N O P Q R S T U V W X Y Z

Civ - Trust Slips Through Your Hands tab

VERSE:
-----------------|-----------------|
-----------------|-----------------|
-2-2-2-2-5-5-5-5-|-----------------|
-2-2-2-2-5-5-5-5-|-4-4-4-4-4-4-4-4-|
-0-0-0-0-3-3-3-3-|-4-4-4-4-4-4-4-4-|
-----------------|-2-2-2-2-2-2-2-2-|

CHORUS:
4/4             2/4
---------------|----------|
---------------|----------|
--------5-5--5-|----------|
-4-4--4-5-5--5-|-5--7--5--|
-4-4--4-3-3--3-|-5--7--5--|
-2-2--2--------|-3--5--3--|
Tap to rate this tab
 
# A B C D E F G H I J K L M N O P Q R S T U V W X Y Z