Song name
# A B C D E F G H I J K L M N O P Q R S T U V W X Y Z

Civ - Gang Opinion tab

Intro
E|-------------------------     ----------------------------------|
B|-------------------------     ----------------------------------|
C|-------------------------\    ----------------------------------|
D|--5-5-5-5--7-7--9--10---- |x4 ----5-----------------------------|
A|--5-5-5-5--5-5--7--8-----/    ----5-----------------------------|
E|--3-3-3-3----------------     ----3-----------------------------|

   Verse
E|-------------------------------------------------------------------|
B|-------------------------------------------------------------------|
C|----------------------------------------------------------------\--|
D|--5-5-5-5-5-5-5--7-7-7-7--7-7--9-10--------------------------------|x2
A|--5-5-5-5-5-5-5--5-5-5-5--7-7--7-8---------------------------------|
E|--3-3-3-3-3-3-3-----------5-5--------------------------------------|

   Chorus
E|----------------------------------------------------------------|
B|-------------------------8-8-8-8-8-8-8-8------------------------|
C|----------------------------------------------------------------|
D|--5-5-5-5--7-7--9--10-----------------------7-7--9--10----------|
A|--5-5-5-5--5-5--7--8------------------------5-5--7--8-----------|
E|--3-3-3-3-------------------------------------------------------|

E|----------------------------------------------------------------|
B|----------------------------------------------------------------|
C|----------------------------------------------------------------|
D|--5-5-5-5--7-7--9--10----5-5-5-5-5-5----------------------------|
A|--5-5-5-5--5-5--7--8-----5-5-5-5-5-5----------------------------|
E|--3-3-3-3----------------3-3-3-3-3-3----------------------------|

   Verse  ->

   Chorus ->

   Bridge
E|----------------------------------------------------------------|
B|----------------------------------------------------------------|
C|----------------------------------------------------------------|
D|--7--7--9---5-----------------7--7--9--9---9-10-9---------------|
A|--5--7--7---5-----------------5--7--7--9---7-8--7---------------|
E|-----5------3-3-3-3-3-3-3-3------5-----7------------------------|

E|-------------------------------------------------------------------|
B|-------------------------------------------------------------------|
C|----------------------------------------------------------------\--|
D|--5-5-5-5-5-5--7--7--9--9--9-10-9----------------------------------|x3
A|--5-5-5-5-5-5--5--7--7--9--7-8--7----------------------------------|
E|--3-3-3-3-3-3-----5-----7------------------------------------------|

   Chorus (Outro)
E|-------------------------     ----------------------------------||
B|-------------------------     ----------------------------------||
C|-------------------------\    ----------------------------------||
D|--5-5-5-5--7-7--9--10---- |x3 ----5-----5-----------------------||
A|--5-5-5-5--5-5--7--8-----/    ----5-----5-----------------------||
E|--3-3-3-3----------------     ----3-----3-----------------------||
Tap to rate this tab
 
# A B C D E F G H I J K L M N O P Q R S T U V W X Y Z