Song name
# A B C D E F G H I J K L M N O P Q R S T U V W X Y Z

Civet - State Line tab

Help us improve GuitareTab! Take a short survey!
State Line - Civet

Intro/Verse
e|--------|-----|
b|--------|-----|
g|--9-----|-----|
d|--9--7--|--9--|
a|--7--7--|--9--|
E|-----5--|--7--|

Chorus
e|--------|
b|--------|
g|--------|
d|--7--9--|
a|--7--9--|
E|--5--7--|

“Wake up...”
e|--------|
b|--------|
g|--7-----|
d|--7--7--|
a|--5--7--|
E|-----5--|

Solo
e|-----------------------------------------------------------------------------------------------|
b|--------------2--3--------------2--3--------------2--3--5--5--5--5--5--5--3--2-----------2--3--|
g|--4--4--2--2--------4--4--2--2--------4--4--2--2--------------------------------4--2--2--------|
d|-----------------------------------------------------------------------------------------------|
a|-----------------------------------------------------------------------------------------------|
E|-----------------------------------------------------------------------------------------------|

--------------------------------------------------------------------------------------------------|
--------------2--3--------------2--3--5--5--5--5--5--5--3--2--------------2--3--------------2--3--|
--4--4--2--2--------4--4--2--2--------------------------------4--4--2--2--------4--4--2--2--------|
--------------------------------------------------------------------------------------------------|
--------------------------------------------------------------------------------------------------|
--------------------------------------------------------------------------------------------------|

--------------------------------------------|
--------------2--3--5--5--5--5--5--5--3--2--|
--4--4--2--2--------------------------------|
--------------------------------------------|
--------------------------------------------|
--------------------------------------------|

“Wake up...”
e|--------|
b|--------|
g|--9-----|
d|--9--7--|
a|--7--7--|
E|-----5--|
Related for State Line tab