Song name
# A B C D E F G H I J K L M N O P Q R S T U V W X Y Z

Civilian - We Got The Better Bomb tab

Civilian - We Got The Better Bomb
Tabbed By: Art Corella
EMail: shuvel88@yahoo.com

Date: Sept, 25 2002


  this song is dropped D tuning,  I promise this song is at least
95% correct.

-----------------------------------------------------------------
-----------------------------------------------------------------
-----------------------------------------------------------------
-------------------3h5-------------------------------------------
-0-xx--3--5--xxxx-------3h5-------0-xx--5p3----------------------
-0-xx--------xxxx------------3h5--0-xx------5p3-3h5-5p3-3h5------

-----------------------------------------------------------------
-----------------------------------------------------------------
-----------------------------------------------------------------
-------------------3h5-------------------------------------------
-0-xx--3--5--xxxx-------3h5-------0-xx--5p3----------------------
-0-xx--------xxxx------------3h5--0-xx-------5p3--3h5------------
Tap to rate this tab
# A B C D E F G H I J K L M N O P Q R S T U V W X Y Z