Guitaretab - guitar tabs
Song name
# A B C D E F G H I J K L M N O P Q R S T U V W X Y Z

Ckoozies - I Dont Really Care tab

-------------------------------------------------------------------------------
			   I Don't Really Care - The Ckoozies
-------------------------------------------------------------------------------

By:Jake

Tuning: Normal


Intro (Clean Ska)

e|--5---5-5--5---5-5--5---5-5---7--7-7---------------------------------------|
B|--5---5-5--7---7-7--5---5-5---9--9-9---------------------------------------|
G|--6---6-6--7---7-7--6---6-6---9--9-9---------------------------------------|
D|--7---7-7--7---7-7--7---7-7---9--9-9---------------------------------------|
A|--7---7-7--5---5-5--7---7-7---7--7-7---------------------------------------|
E|--5---5-5-----------5---5-5------------------------------------------------|


e|--5--5-5---5--5-5--7--7--7-------------------------------------------------|
B|--5--5-5---7--7-7--9-10--9-------------------------------------------------|
G|--6--6-6---7--7-7--9--9--9-------------------------------------------------|
D|--7--7-7---7--7-7--9--9--9-------------------------------------------------|
A|--7--7-7---5--5-5--7--7--7-------------------------------------------------|
E|--5--5-5-------------------------------------------------------------------|
[ Tab from: http://www.guitaretab.com/c/ckoozies/37416.html ]
Verse (Clean Ska)
e|--5---5-5--5---5-5--5---5-5--7---7-7---------------------------------------|
B|--5---5-5--7---7-7--5---5-5--9---9-9---------------------------------------|
G|--6---6-6--7---7-7--6---6-6--9---9-9---------------------------------------|
D|--7---7-7--7---7-7--7---7-7--9---9-9------(Repeat)-------------------------|
A|--7---7-7--5---5-5--7---7-7--7---7-7---------------------------------------|
E|--5---5-5-----------5---5-5------------------------------------------------|

Chorus (Distortion Punk)
e|---------------------------------------------------------------------------|
B|---------------------------------------------------------------------------|
G|------7-7-9-9-9-9-7-7-7-7--------------------------------------------------|
D|--7-7-7-7-9-9-9-9-7-7-7-7---(Repeat)---------------------------------------|
A|--7-7-5-5-7-7-7-7-5-5-5-5--------------------------------------------------|
E|--5-5----------------------------------------------------------------------|

Solo (Distortion)
e|-----------------------5-5-5-5---------------------------------------------|
B|---2-3-3-5-5-5---2-3-3---------5---2-3-3-5-5-5-----------------------------|
G|--2------------2------------------2----------------------------------------|
D|---------------------------------------------------------------------------|
A|---------------------------------------------------------------------------|
E|---------------------------------------------------------------------------|

e|---------------------------------------------------------------------------|
B|--3^2-2-3^2-2-3^2-----x2--5-5-5-5-5-5-5-5-5-5-5----------------------------|
G|------------------2--------------------------------------------------------|
D|---------------------------------------------------------------------------|
A|---------------------------------------------------------------------------|
E|---------------------------------------------------------------------------|
Related for I Dont Really Care tab