Song name
# A B C D E F G H I J K L M N O P Q R S T U V W X Y Z

Ckoozies - Katherine tab

-------------------------------------------------------------------------------
			      	Katherine - The Ckoozies
-------------------------------------------------------------------------------

By:Jake

Tuning: Normal


Intro/Verse

e|---------------------------------------------------------------------------|
B|---------------------------------------------------------------------------|
G|--------2-4--444444--------------------------------------------------------|
D|-2--222-2-4--444444------(Repeat)------------------------------------------|
A|-2--222-0-2--222222--------------------------------------------------------|
E|-0--000--------------------------------------------------------------------|

Chorus
e|---------------------------------------------------------------------------|
B|---------------------------------------------------------------------------|
G|--------2-2--9--9----------------------------------------------------------|
D|--2-2-2-2-2--9--9--9-9--x3--7777--99999------------------------------------|
A|--2-2-2-0-0--7--7--9-9------7777--99999------------------------------------|
E|--0-0-0------------7-7------5555--77777------------------------------------|

Solo
e|---------------------------------------------------------------------------|
B|--5-5-5--------5-5-5--------5-5-5------------------------------------------|
G|---------------------------------------------------------------------------|
D|--------7-6-7--------7-6----------7-6-7------------------------------------|
A|-------------------------7--------------7----------------------------------|
E|------------------------------------------7-7------------------------------|

e|---------------------------------------------------------------------------|
B|--5-5-5-----5-5-5-----5-5-5------------------------------------------------|
G|---------------------------------------------------------------------------|
D|-------7-6-7-----7-6-------7-6-7-9999999999--------------------------------|
A|---------------------7-----------------------------------------------------|
E|---------------------------------------------------------------------------|
Tap to rate this tab
# A B C D E F G H I J K L M N O P Q R S T U V W X Y Z