Guitaretab - guitar tabs
Song name
# A B C D E F G H I J K L M N O P Q R S T U V W X Y Z

Ckoozies - All Star Shoes tab

-------------------------------------------------------------------------------
			      	All Star Shoes - The Ckoozies
-------------------------------------------------------------------------------

By:Jake

Tuning: Normal


Intro/Verse (Clean Ska)

e|--6-6--6--6--4-4--4--6-6--6--6--6--6-6---6-6--6--6--4-4--4-----------------|
B|--8-8--8--8--4-4--4--8-8--8--8--6--6-6---8-8--8--8--4-4--4-----------------|
G|--8-8--8--8--5-5--5--8-8--8--8--7--7-7---8-8--8--8--5-5--5-----------------|
D|--8-8--8--8--6-6--6--8-8--8--8--8--8-8---8-8--8--8--6-6--6-----------------|
A|--6-6--6--6--6-6--6--6-6--6--6--8--8-8---6-6--6--6--6-6--6-----------------|
E|-------------4-4--4-------------6--6-6--------------4-4--4-----------------|

[ Tab from: http://www.guitaretab.com/c/ckoozies/37418.html ]
e|--6--6-6--4-4--4--6--6-6---------------------------------------------------|
B|--6--6-6--4-4--4--6--6-6---------------------------------------------------|
G|--7--7-7--5-5--5--7--7-7---------------------------------------------------|
D|--8--8-8--6-6--6--8--8-8---(Repeat)----------------------------------------|
A|--8--8-8--6-6--6--8--8-8---------------------------------------------------|
E|--6--6-6--4-4--4--6--6-6---------------------------------------------------|

Chorus (Distorted Punk)
e|---------------------------------------------------------------------------|
B|---------------------------------------------------------------------------|
G|---------8-8-88------------------------------------------------------------|
D|--888--6-8-8-88-----(Repeat)-----------------------------------------------|
A|--888--6-6-6-66------------------------------------------------------------|
E|--666--4-------------------------------------------------------------------|
Related for All Star Shoes tab