Song name
# A B C D E F G H I J K L M N O P Q R S T U V W X Y Z

Cky - Hellions On Parade tab

CKY
Hellions on Parade
DGCFAD
Tabbed by hellview_666

Note: I gave it my best. This was taken from the live video on youtube. IF you think 
differnet, play it the way you feel, but I think I got fairly close. Enjoy, and bring on 
new album!!!

Intro
|--------------------------|
|--------------------------|
|-9-------12-12-12-7-------|
|---9----------------------|
|-----7------------------5-|
|-------0------------5-7---|


Verse
|--------------------| |----------------|
|--------------------| |----------------|
|-------9-11-12------| |-9-11-12--------|
|--------------------| |----------------|
|-------7--9-10------| |-7--9-10--------|
|-0-0-0----------0-0-| |-----------0-0--|

|------------------------|
|------------------------|
|------------------------|
|-----/7-5-4---/5-4------|
|-7-9--------5------2-5--|
|------------------------|

|------------------------------|
|------------------------------|
|------------------------------|
|-----/10-9-7-9-7-\5-----------|
|-7-9-----------------5~~-2-5--|
|------------------------------|

pre chorus
|---------------------------------------------|
|---------------------------------------------|
|---------------------------------------------|
|-/9-7-5-4-5-----7--7-7--7-7-7--9--9-9--9-9-9-|
|------------5~--7--7-7--7-7-7--9--9-9--9-9-9-|
|----------------5--5-5--5-5-5--7--7-7--7-7-7-|


|-------------------------------------------------|
|-------------------------------------------------|
|-------------------------------------------------|
|-------------------------------------------------|
|-10-10-10-10-10-10-10-10-12-12-12-12-13-13-13-13-|
|--8--8--8--8--8--8--8--8-10-10-10-10-11-11-11-11-|


Bridge
|-----------------------------------------------------------------------------------|
|-----------------------------------------------------------------------------------|
|--------------------------/16-14-14-12-14-12---------------------------------------|
|-/14-14-14-12-14-12----12--------------------14-14-/16-16-16-16-14\12-12----12-----|
|--------------------14---------------------------------------------------14----14~-|
|-----------------------------------------------------------------------------------|


|------------------------------------------------------------------------------------|
|------------------------------------------------------------------------------------|
|--------------------------/16-14-14-12-14-12----------------------------------------|
|-/14-14-14-12-14-12----12--------------------14-14-/16-16-16-16-14\12-12------------|
|--------------------14---------------------------------------------------14-12--10~-|
|------------------------------------------------------------------------------------|
Tap to rate this tab
# A B C D E F G H I J K L M N O P Q R S T U V W X Y Z