Song name
# A B C D E F G H I J K L M N O P Q R S T U V W X Y Z

Cky - Inhuman Creation Station tab

Tuning:DGCFAD
Song:Inhuman Creation Station
Band:CKY

Arranged for one guitar

Riff 1 x4
|-------------------------|
|-------------------------|
|-------------------------|
|---5h7p5-----------------|
|-7------7p5--------------|
|------------0-0-0--0-0-0-|

Riff 2 x1
|-------------------------|
|-------------------------|
|-------------------------|
|---4h5p4-2p0---9-7-5-4h5-|
|-5-----------2-----------|
|-------------------------|

Play Riff 1 x6

Play Riff 2 x1

Play Riff 1 x6

Play Riff 2 x1

Play Riff 1 x1

Play Riff 2 x1

Play Riff 1 x1

Riff 3 x8               
|-----------------------|
|-----------------------|
|-----7h11/12-9-9-------|
|-7h9-------------------|
|-----------------------|
|-----------------0-0-0-|

Riff 4 x1
|-------------------|
|-------------------|
|-----7h11-----7h11-|
|-7h9------7h9------|
|-------------------|
|-------------------|

Riff 5 x1
|-----------------------------------------------------------------|
|-----------------------------------------------------------------|
|-5-5-5-5-5-5-5-5-5-5-5-5-5-5-5-5-9-9-9-9-9-9-9-9-9-9-9-9-9-9-9-9-|
|-5-5-5-5-5-5-5-5-5-5-5-5-5-5-5-5-9-9-9-9-9-9-9-9-9-9-9-9-9-9-9-9-|
|-3-3-3-3-3-3-3-3-3-3-3-3-3-3-3-3-7-7-7-7-7-7-7-7-7-7-7-7-7-7-7-7-|
|-----------------------------------------------------------------|

|-----------------------------------------------------------------|
|-----------------------------------------------------------------|
|-5-5-5-5-5-5-5-5-5-5-5-5-5-5-5-5-9-9-9-9-9-9-9-9-9-9-9-9---------|
|-5-5-5-5-5-5-5-5-5-5-5-5-5-5-5-5-9-9-9-9-9-9-9-9-9-9-9-9-------7-|
|-3-3-3-3-3-3-3-3-3-3-3-3-3-3-3-3-7-7-7-7-7-7-7-7-7-7-7-7---5-5---|
|---------------------------------------------------------3-------|

Riff 6 x2
|-----------------------------------------------------|
|-----------------------------------------------------|
|-----------------------------------------------------|
|-----------------------------------------------------|
|-3-3-3-3-3-3-3-3-3-3-3-3-3-3-3-3-3-2-2-2-------------|
|-----------------------------------------5-5-5-3-3-3-|
PM- - - - - - - - - - - - - - - - - - - - - - - - - -

                                After 2nd time
|-----------------------------| |---|
|-----------------------------| |---|
|-----------------------------| |---|
|-----------------------------| |---|
|-5-5-5-7-7-7-7-7-7-7-7-7-7-7-| |-5-|
|-------0-0-0-0-0-0-0-0-0-0-0-| |---|
PM- - - - - - - - - - - - - -

Play Riff 3 x4

Play Riff 4 x1

Play Riff 1 x4

Play Riff 2 x1

Play Riff 1 x6

Play Riff 2 x1

Play Riff 1 x1

Play Riff 2 x1

Play Riff 1 x1

Play Riff 3 x8

Play Riff 4 x1

Play Riff 5 x1

Play Riff 6 x2-After Second Time
               |---------|
               |---------|
               |---------|
               |-------7-|
               |---5-5---|
               |-3-------|

Interlude
|-------------------------------------------------|
|-------------------------------------------------|
|-------------------------------------------------|
|---------7-5---5-7-7-5---5/9-7-7-5---5-7-------7-|
|-7-7-7-7-----7---------7-----------7-------5-5---|
|-----------------------------------------3-------|

|-------------------------------------------|
|-------------------------------------------|
|-------------------------------------------|
|---------7-5---5-7-7-5---5-7-7-5---5-7-----|
|-7-7-7-7-----7---------7---------7-------5-|
|---------------------------------------3---|

Play Riff 3 x8

Play Riff 4 x1


2006 Kevin M. Johnson (elementos)
Tap to rate this tab
 
# A B C D E F G H I J K L M N O P Q R S T U V W X Y Z