Song name
# A B C D E F G H I J K L M N O P Q R S T U V W X Y Z

Cky - Plagued By Images tab

Tuning: DGCFAD

Tabbed by Jat

D---------------------------------------|
A---------------------------------------|
F------------------------9--------------|
C------------11---9---------9-----------|
G--9-12-9-12--------12---------11-9-----|
D-----------------------------------12--|

D----------------------------------------|
A----------------------------------------|
F------------------------/11-------------|
C------------11---9----------11-------9--|
G--9-12-9-12--------12----------11-12----|
D----------------------------------------|

D---------------------------------|---------------------------------|
A---------------------------------|---------------------------------|
F---------------------------------|---------------------------------|
C--------------------2------------|-------------------/4-----2-4-6--|
G----------4---2--------2---------|----------4---2--------4---------|
D--2-5-2-5-------5---------4-2-0--|--2-5-2-5-------5----------------|


FILL
D------------------------------|------------------------------|
A------------------------------|------------------------------|
F------------------------------|------------------------------|
C----------------9------9------|--------------------9------9--|
G--9--12--9--12-----11-----11--|--9--12--9--12--11-----11-----|
D------------------------------|------------------------------|

D--------------------------|--------------------------|
A--------------------------|--------------------------|
F--------------------------|--------------------------|
C--------------------------|--------------------------|
G--------------2-----2-----|-----------------2-----2--|
D--2--5--2--5-----4-----4--|--2--5--2--5--4-----4-----|


SLOW PART
D-----------------|-----------------|-----------------|----------------|
A-----------------|-----------------|-----------------|----------------|
F------13--11-----|-----------------|------13--11-----|----------------|
C--------------9--|--11--13--9--11--|--------------9--|--11--13--9-----|
G--11-------------|-----------------|--11-------------|-------------9--|
D-----------------|-----------------|-----------------|----------------|

D--------------|--------------|--------------|--------------|
A--------------|--------------|--------------|--------------|
F--------------|--------------|--------------|--------------|
C-----6--4-----|--------------|-----6--4-----|--------------|
G-----------2--|--4--6--2--4--|-----------2--|--4--6--2-----|
D--4-----------|--------------|--4-----------|-----------2--|


BREAKDOWN - Listen for timing
D----------------------------|
A----------------------------|
F----------------------------|
C--6-6---6---6---6-66--6--6--|
G----------------------------|
D----------------------------|

D----------------------------|
A----------------------------|
F----------------------------|
C----------------------------|
G--7-7---7---7---7-77--7--7--|
D--0-0---0---0---0-00--0--0--|
Tap to rate this tab
 
# A B C D E F G H I J K L M N O P Q R S T U V W X Y Z