Song name
# A B C D E F G H I J K L M N O P Q R S T U V W X Y Z

Cky - Rats In The Infirmary tab

RATS IN THE INFIRMARY
As recorded by cKy
(From the 2009 Album CARVER CITY)


Transcribed by SJC (Guitar Skater)

Intro
|-------------------------------------------------|
|-------------------------------------------------|
|-------------------------------------------------|
|---------------------2-2---------------------2-2-|
|-------3-5-5-3-3-5-3-----------3-5-5-3-3-5-3-----|
|-5-5-5-------------------5-5-5-------------------|

Verse Guitar 1 & 2 Div.
|-------------------------------|
|-------------------------------|
|-------------------------------|
|-------------------------------|
|-7-7-7-5-3-3-5-7-5-7-5-7-5-7-5-|
|-8-8-8-7-5-5-7-5-7-5-7-5-7-5-7-|


|-------------------------------------------------|
|-------------------------------------------------|
|-------------------------------------------------|
|---------------------2-2---------------------2-2-|
|-------3-5-5-3-3-5-3-----------3-5-5-3-3-5-3-----|
|-5-5-5-------------------5-5-5-------------------|


||--------------------------------|
||o-------------------------------|
||--------------------------------|
||--------------------------------|
||o-7-7-7-5-3-3-5-7-5-7-5-7-5-7-5-|
||--8-8-8-7-5-5-7-5-7-5-7-5-7-5-7-|

Pre Chorus/Chorus
|-------------------------------------------|
|-------------------------------------------|
|-------------------------------------------|
|-----------------5-------------------------|
|-------3---3-5-7---7-3-5-3---------7-5-3-0-|
|-5-5-5---5-----------------1-1-1-1---------|

Solo
|-------------------------------------------------------------|
|-------------------------------------------------------------|
|---9-7-5--12-9-7--9-7-5-7-9------9-7-5--12-9-7--9-7-5-7-9----|
|-7--------------------------5--7--------------------------5--|
|-------------------------------------------------------------|
|-------------------------------------------------------------|


|----------|
|-8b10r====|
|----------|
|----------|
|----------|
|----------|


         T  T              T  T              T  T              
|-10-12-15-15-12-10-10-12-15-15-12-10-10-12-15-15-12-10-10-22b24----|
|-------------------------------------------------------------------|
|-------------------------------------------------------------------|
|-------------------------------------------------------------------|
|-------------------------------------------------------------------|
|-------------------------------------------------------------------|


|-------------------------------------------------|
|-------------------------------------------------|
|-------------------------------------------------|
|---------------------2-2---------------------2-2-|
|-------3-5-5-3-3-5-3-----------3-5-5-3-3-5-3-----|
|-5-5-5-------------------5-5-5-------------------|


|-------------------------------|
|-------------------------------|
|-------------------------------|
|-------------------------------|
|-7-7-7-5-3-3-5-7-5-7-5-7-5-7-5-|
|-8-8-8-7-5-5-7-5-7-5-7-5-7-5-7-|


|-------------------------------------------|
|-------------------------------------------|
|-------------------------------------------|
|-----------------5-------------------------|
|-------3---3-5-7---7-3-5-3---------7-5-3-0-|
|-5-5-5---5-----------------1-1-1-1---------|

Tap to rate this tab
# A B C D E F G H I J K L M N O P Q R S T U V W X Y Z