Song name
# A B C D E F G H I J K L M N O P Q R S T U V W X Y Z

Cky - The Boardwalk Body tab

For more tabs, go to CKYTABS.NET

"The Boardwalk Body"
Tabbed by Dan
Tuning: Full Step Down (DGCFAD)

MAIN RIFF  
D||--------------------------|----------------------------|
A||--------------------------|----------------------------|
F||--------------------------|----------------------------|
C||--------------------------|--------------11---9------9-|
G||--------6-----6--7-----7--|--9-----7------------11-----|
D||--0--0-----0--------0-----|-----9-----9----------------|
 
 --------------------------|--------------------------|
 --------------------------|--------------------------|
 --------------------------|--------------------------|
 --------------------------|--------------7---6-------|
 --------6-----6--7-----7--|--9-----7-----------9---7-|
 --0--0-----0--------0-----|-----9-----9--------------|


GUITAR 1 IT'S TOO HARD TO WALK AWAY RIFF  
--------------------------|--------------------------|
--------------------------|--------------------------|
--------------------4-----|-----------6-----------4--|
--------------------------|--4--6-----------4--6-----|
--------------------------|--------------------------|
--5--5--5--5--5--5-----5--|--------5-----5-----------|
palm mute all the 5's on the D

--------------------------|--------------------------|
--------------------------|--------------------------|
--------------------------|--------------------------|
--------------------6-----|--4--2-----4-----------2--|
--4--4--4--4--4--4-----4--|--------0-----0--2--4-----|
--------------------------|--------------------------|
palm mute all the 4's on the G

GUITAR 2 IT'S TOO HARD TO WALK AWAY RIFF
--------------------------|--------------------------|
--------------------------|--------------------------|
--------------------4-----|-----------6-----------4--|
--------------------------|--4--6-----------4--6-----|
--------------------------|--------------------------|
--5--5--5--5--5--5-----5--|--------5-----5-----------|
palm mute all the 5's on the D

--------------------------|--------------------------|
--------------------------|--------------------------|
--------------------------|--------------------------|
--2--2--2--2--2--2--------|--4--2-----4-----------2--|
-----------------------4--|--------0-----0--2--4-----|
--------------------------|--------------------------|

GUITAR 1 LITTLE FIDDLY BIT BEFORE CHORUS RIFF
--------------------------------------------------|
--------------------------------------------------|
--------------------------------------------18-18-|
--11-11-11-11-11-11-11-11-11-11-11-11-11-11-------|
--------------------------------------------------|
--------------------------------------------------|

--------------------------------------------------|
--------------------------------------------------|
--------16-16-------------------16-16-------------|
--18-18-------------14-14-------------------16-16-|
--------------16-16-------14-14-------14-14-------|
--------------------------------------------------|

GUITAR 2 LITTLE FIDDLY BIT BEFORE CHORUS RIFF
--------------------------------------------------|
--------------------------------------------------|
--------------------------------------------13-13-|
--------------------------------------------------|
--11-11-11-11-11-11-11-11-11-11-11-11-11-11-------|
--------------------------------------------------|
  
--------------------------------------------|
--------------------------------------------|
--------11-11---------------11-11-----------|
--13-13-------------9-9---------------11-11-|
--------------11-11-----9-9-------9-9-------|
--------------------------------------------|


CHORUS RIFF 
----------------------------------|--------------------------------|
----------------------------------|--------------------------------|
----------------------------------|--------------------------------|
----------------------------------|--2--------------2--------------|
--0-0-0-0-0-0-0-0-0-0-0-0-0-0-2-4-|-----0-0-0-0-2-4----0-0-0-0-0-0-|
----------------------------------|--------------------------------|
 
----------------------------------|----------------------------------|
----------------------------------|----------------------------------|
------------------------------6-6-|----------------------------------|
----------------------------------|--6-6-9-9-------------9-9---------|
--4-4-4-4-4-4-4-4-4-4-4-4-4-4-----|----------4-4-7-7-------------9-9-|
----------------------------------|------------------7-7-----7-7-----|


GUITAR 1 AFTER CHORUS RIFF 
----------------------------------|--------------------------------|
----------------------------------|--------------------------------|
----------------------------------|------------------------7-7-5-5-|
------------------------------5-5-|--9-9-5-5-7-7-------5-5---------|
--7-7-7-7-7-7-7-7-7-7-7-7-7-7-----|--------------3--5--------------|
----------------------------------|--------------------------------|

----------------------------------|-----------------------------|
----------------------------------|-----------------------------|
--4-4-----------------------------|-----------------------------|
------------------------------5-5-|--9-9-5-5-7-7----------------|
------7-7-7-7-7-7-7-7-7-7-7-7-----|--------------3--5-----------|
----------------------------------|-----------------------------|


GUITAR 2 AFTER CHORUS RIFF
----------------------------------|--------------------------------|
----------------------------------|--------------------------------|
----------------------------------|------------------------7-7-5-5-|
------------------------------5-5-|--9-9-5-5-7-7-------5-5---------|
--7-7-7-7-7-7-7-7-7-7-7-7-7-7-----|--------------3--2--------------|
----------------------------------|--------------------------------|

----------------------------------|-----------------------------|
----------------------------------|-----------------------------|
--4-4-----------------------------|-----------------------------|
------------------------------5-5-|--9-9-5-5-7-7----------------|
------7-7-7-7-7-7-7-7-7-7-7-7-----|--------------3--5-----------|
----------------------------------|-----------------------------|


I do not take any credit for tabbing this!
Tap to rate this tab
# A B C D E F G H I J K L M N O P Q R S T U V W X Y Z