Song name
# A B C D E F G H I J K L M N O P Q R S T U V W X Y Z

Cky - Volume 1 tab

This is the COMPLETE and ACCURATE album tab of Volume 1 by CKY. I want to give all the 
to CKYTABS.NET and everyone here at Ultimate-guitar.com

ENJOY!

For more tabs, go to CKYTABS.NET

"96 Quite Bitter Beings"
Tuning: Half Step Down (Eb Ab Db Gb Bb Eb)

MAIN RIFF (x4)
Gb|-----4-------4-5-4-----------5/7-5--4-2-0-2/4-0-|
Db|---5-------5-------5-4-----5--------------------|
Ab|-7-------7-------------5-3----------------------|
Eb|-------0----------------------------------------|

VERSE RIFF (x6)
Gb|----------------|
Db|----------------|
Ab|----------4-4-4-|
Eb|-0-0-0--0-------|

MAIN RIFF (x4)

VERSE RIFF (x6)

HEAVY BRIDGE PART RIFF (x8)(Just after the 6th time, Pause for a second
then play the last 2 parts again)
Gb|-4-4-4-4-4-4-------------|
Db|-5-5-5-5-5-5-7-7-7-7-7-7-|
Ab|-7-7-7-7-7-7-5-5-5-5-5-5-|
Eb|-------------3-3-3-3-3-3-|

BRIDGE RIFF (x2)
Gb|----------------------------------------|
Db|-------5--------------------5-----------|
Ab|-5-5-5---5-5/7--------3-3-3---5-5/7-----|
Eb|---------------0-0--0---------------0-0-|

HEAVY BRIDGE PART RIFF (x8)(Just after the 6th time, Pause for a second
then play the last 2 parts again)

BRIDGE RIFF (x2)

MAIN RIFF (x8)


"Rio Bravo"
Tuning: Full step down (DGCFAD)


Riff 1

|-------------------------------------------------------------------------|
|-------------------------------------------------------------------------|
|-------------------------------------------------------------------------|
|---8---8---8-----8-8---8---8---8-----8-8---8---8---8-----8-8-------------|
|---7---7---7-----7-7---7---7---7-----7-7---7---7---7-----7-7--2---2---2--|
|-0---0---0-----------0---0---0-----------0---0---0------------0---0---0--|

             Riff 2
|-----------|--------------------------------------------------------------|
|-----------|--------------------------------------------------------------|
|-----------|--------------------------------------------------------------|
|-8-8---8---|-9-8-7~----------5--------------------------------------------|
|-7-7---7---|-----------5-6-7------------9-8-7~----------5-----------------|
|-----0---0-|--------0------------0--0-0---------0--5-6-7---7-6-5-3-0------|

on the 3rd time through play it like this

|------------------------------------------------|
|------------------------------------------------|
|------------------------------------------------|
|-9-8-7~----------5------------------------------|
|-----------5-6-7------------9-8-7~----------5---|
|--------0-----------0--0-0---------0--5-6-7-----|

|-------------------------------------------------|
|-------------------------------------------------|
|-------------------------------------------------|
|----------------5---------------5---------9-8-7--|
|----------5-6-7-----------5-6-7---2---2----------|
|-7-6-5-3----------7-6-5-3---------0---0----------|

|---------------------------------------|
|---------------------------------------|
|---------------------------------------|
|-----------------------------5---------|
|-----------5----------5-6-7------------|
|-0---5-6-7---7-6-5-3-----------7-6-5-3-|


this part is almost the same as riff 1

|---------------------|
|---------------------|
|---------------------|
|--8---8---8-----8-8--|
|--7---7---7-----7-7--|
|0---0---0------------|


Bridge riff (played really quiet)

|--------------------------------------------------------------------------------|
|--------------------------------------------------------------------------------|
|--------------------------------------------------------------------------------|
|--------------------------------------------------------------------------------|
|----9---9-8-7-----------5-----9---9-8-7-----------5-----9---9-8-7-------------5-|
|-0------------0---5-6-7-----0-----------0---5-6-7-----0-----------0---5-6-7-----|

end bridge riff with:

|---------------|
|---------------|
|---------------|
|-11---11-10-9--|
|-9----9--8--7--|
|---------------|


from 2:44 to the end of the song, play this: (listen for timing/rhythm)

|-------------|
|-------------|
|-------------|
|-------------|
|-2---2---2---|
|-0---0---0---|


"Disengage The Simulator"
Tuning: full step down (DGCFAD)

Guitar 1/main riff
--------------------------------------|
--------------------------------------|
--------------------------------------|
---------------4------------4-----3---|
-------------4------------4---4-1---4-|
-2---2-2---2-----2-2----2-------------|


Guitar 2
-------------------------------------|
-------------------------------------|
-------------------------------------|
-------------------------------------|
-4---4-4---4-----4-4-----------------|
-2---2-2---2-----2-2-----------------|


Guitar 1/Riff 2
--------------------------------------------------|
--------------------------------------------------|
--------------------------------------------------|
-----4-4-6-6-----6-6-8-8------4-4-6-6-----6-6-8-8-|
-6-6---------4-4---------6-6----------4-4---------|
--------------------------------------------------|


Guitar 2
-----------------------------------------------------|
-----------------------------------------------------|
-------------------------------6-6-8-8-----8-8-10-10-|
-----4-4-6-6-----6-6-8-8---8-8---------6-6-----------|
-6-6---------4-4-------------------------------------|
-----------------------------------------------------|


Riff 3/chorus
-------------------------------------------------|
-------------------------------------------------|
------------------------------9-------9-------11-|
----------4-2-----7-6-4-----6---6---6---6---8----|
-4---4-4------4-7-------6-7-------7-------9------|
-2---2-2-----------------------------------------|


-------------------------------------------------|
-------------------------------------------------|
-------------------------------------------------|
------4--4~--------------------------------------|
---4---------------------------------------------|
-2-----------------------------------------------|

The song fades away with Riff 2.


"The Human Drive In Hi-Fi"
Tuning: full step down (DGCFAD)

Riff 1
---------------------------------|
---------------------------------|
---------------------------------|
---------------------------------|
-----5---------8---7---5---7-----|
-7-5---7-5-7-5---5---5---7---7---|


Riff 2/verse
----------------------------------------------------------------|
----------------------------------------------------------------|
----------------------------------------------------------------|
----------------------------------------------------------------|
----------------------------------------------------------------|
-7--7-5-7-5-7-5-7--7-5-7-5-7-3-7--7-5-7-5-7-5-7--7-5-7-5-7-3-7--|


Riff 3/chorus
-------------------------------------------------------------------------|
-------------------------------------------------------------------------|
-------------------------------------------------------------------------|
---9---9--------------7---7--------------9---9---------------------------|
----------5-5/7-------------/9-7-5---------------5-5/7----/9-/9-9-7-5----|
-7---7----------5---5---5----------7---7---7-----------5--------------7--|

the little riff at the end of the song comes after "riff 2/verse" is played. it goes like this:

-------------------------------|
-------------------------------|
-------------------------------|
-------------------------------|
-7--7-5-7-5-7-5-7--7-5-7-5-/8--|
-------------------------------|

end the song on:

-----
-----
-----
-----
-9\--
-7\--


"Lost In A Contraption"
Tuning: Full step down (DGCFAD)


Main riff

-------------------------------------8--7----------7-8-7-----------------------|
-9-10-9----------------9--10--9--10-------10-9--10-------9-10--9-10-9----------|
--------10-11---10-11-------------------------------------------------11-10-11-|
-------------------------------------------------------------------------------|
-------------------------------------------------------------------------------|
-------------------------------------------------------------------------------|

You can play it like this too (lower octave):

--------------------------------------------------------------|
--------------------------------------------------------------|
-------------------------5-4--------4-5-4---------------------|
-6-7-6------------6-7-6------7-6--7-------6-7---6-7-6---------|
-------8-9---8-9---------------------------------------9-8-9--|
--------------------------------------------------------------|


Riff 2/verse
----------------------------------|
----------------------------------|
----------------------------------|
---4---4---4---4---4---4---4---4--|
----------------------------------|
-2---2---2---2---2---2---2---2----|


Riff 3

Guitar 1 (lower octave)

-----------------------------------------------|
-----------------------------------------------|
-----------------------------------------------|
-----------------------------------------------|
-----------------------------------------------|
-2-5-4--3-4-5-4-3--4-5--2-5-4--3-4-5-4-3--4-5--|

(higher octave)

-----------------------------------------------------|
-7-10-9--8-9-10-9-8--9-10--7-10-9--8-9-10-9-8--9-10--|
-----------------------------------------------------|
-----------------------------------------------------|
-----------------------------------------------------|
-----------------------------------------------------|


Guitar 2 (listen for timing/rhythm)

--20p18p16------20p18p16--20p18p16--|
------------------------------------|
------------------------------------|
------------------------------------|
------------------------------------|
------------------------------------|


Riff 4 (main riff played a little differently, 0:33 seconds in)

------------------------------------------------------------------|
-9-10-9-------------9-10-9--------------9-10-13-12-10-9-----------|
--------10-11-10-11--------11-10--10-11-----------------11-10-11--|
------------------------------------------------------------------|
------------------------------------------------------------------|
------------------------------------------------------------------|

lower octave:

---------------------------------------------------|
---------------------------------------------------|
---------------------------------------------------|
-6-7-6---------6-7-6----------6-7-10-9--7-6--------|
-------8-9-8-9-------9-8--8-9---------------9-8-9--|
---------------------------------------------------|


Chorus

(lower octave):
----------------------------------|
----------------------------------|
----------------9--------------9--|
-9-9-7--6--9-11---7-----9--11-----|
----------------------------------|
----------------------------------|

(higher octave):
--------------------12---------------12--|
-12-12-10--9--12-14----10-----12-14------|
-----------------------------------------|
-----------------------------------------|
-----------------------------------------|
-----------------------------------------|

end on:
----
----
----
-9--
-7--
-7--


Bridge riff

--------------------------|
--------------------------|
-------------6------------|
----------------7-6-4-----|
-4-7-6-----4-----------7--|
-------7-4----------------|

last time this bridge riff is played, end it like this:

--------------|
--------------|
--------------|
--------------|
-4-7-6-----4--|
-------7-4----|

that's it.


Tuned down one whole step (low to high: DGCFAD)

Intro/Main Riff
-------------------------------------------------|
-------------------------------------------------|
------9b11r9-------------------------------------|
-----9-------9--7-7--5/7-7--7--7p5---7--7--7p5---|
-7-----------------------5--5--5-----3--3--3-----|
-------------------------------------------------|

-------------------------------------------------|
-------------------------------------------------|
------9b11r9-------------------------------------|
-----9-------9-7-7-5p0-7-7--7--7p5---7--7--7p5---|
-7---------------------5-5--5--5-----3--3--3-----|
-0-----------------------------------------------|

Verse

Guitar 1
---------------------------------------------------|
---------------------------------------------------|
---------------------------------------------------|
-------------------7---7--7-5--5-5-7---7--7-5--5-5-|
-2----2--2-2---2-2-5---5--5-5--5-5-3---3--3-3--3-3-|
-0----0--0-0---0-0-5---5--5-5--5-5-3---3--3-3--3-3-|

Guitar 2
---------------------------------------------------|
---------------------------------------------------|
-----9b11r9----------------------------------------|
----9-------9--7-7--5-7---7--7--7p5-5--7--7--7p5-5-|
-2------------------------5--5--5---5--3--3--3---3-|
-0-------------------------------------------------|

Play 4x, then...

(Guitar 1 only)
Some people don't know, don't know what is wrong so they're knee deep,
Knee deep in sorrow

Repeat 4x

Lead 1 (Guitar 2)
--------------------------------------------------------|
--------------------------------------------------------|
------9b11r9-------------/7----7-0-0--7/9-9-9-7/9-9-----|
-----9-------9--7-7--5/7----------------------------9---|
-7----------------------------------------------------7-|
--------------------------------------------------------|

-------------------------------------------------|
-------------------------------------------------|
------9b11r9-------------------------------------|
-----9-------9--7-7--5/7-7--7--7p5---7--7--7p5---|
-7-----------------------5--5--5-----3--3--3-----|
-------------------------------------------------|

(Guitar 1 only)
Some people don't know, don't know what is wrong so they're knee deep,
Knee deep in sorrow
2x

Bridge pt 1

Guitar 1
-----------------------------|
-----------------------------|
-----------------------------|
-----------------------------|
-4-------4-------------------|
-2-------2-------------------|

Guitar 2
-----------------------------|
-----------------------------|
-----------------------------|
----2h4---------2-4-2--6-4-2-|
-4-------4----4--------------|
-2-------2--2----------------|

Bridge Part 2
Guitar 2
----------------------------------------------------------|
----------------------------------------------------------|
----------------------------------------------------------|
----2h4-----2---2-4-2--6-4-2-----2h4-----2---2-4-2--6-4-2-|
-4-------4----4---------------4-------4----4--------------|
-2-------2--------------------2-------2-------------------|

----------------------------------------------------------|
----------------------------------------------------------|
----------------------------------------------------------|
------------2---2-4-2--6-4-2-------------2---2-4-2--6-4-2-|
-7--6--4------4----------------------------4--------------|
-5--4--2-2--------------------5--3--2-2-------------------|

Repeat once more

Verse 3
With reverb etc...
---------------------------------|
---------------------------------|
---------------------------------|
-------12\9-9--7-0--7-0-5------7-|
-7----------------------7------5-|
-0-------------------------------|

Some people don't know, don't know what is wrong so they're knee deep,
Knee deep in sorrow
2x

Back to distorted verse

Some people don't know, don't know what is wrong so they're knee deep,
Knee deep in sorrow
2x

Repeat Bridge Part 2

Outro

Guitar 1
---------------------------------------------------|
---------------------------------------------------|
---------------------------------------------------|
-------------------7---------------5---------------|
-2-----------------5---------------3---------------|
-0-------------------------------------------------|

Guitar 2
Repeat "Lead 1"

Play 2x, end on a low E power chord

Intro/verse Whole step Down  DGCFAD    Guitar1
1|-----------------------------------------------------------------|
2|-----------------------------------------------------------------|
3|-----------------------------------------------------------------|
4|---------9-7---7---------9-7---7---------------------------------|
5|-----7-7-----7-------7-7-----7---5-5-5-5-5-5-5-5-5-5-5-5-5-5-5-5-|
6|-0-0-------------0-0-------------3-3-3-3-3-3-3-3-3-3-3-3-3-3-3-3-|

Guitar 2
1|-----------------------------------------------------------------|
2|-----------------------------------------------------------------|
3|-----------------------------------------------------------------|
4|-----------------------------------------------------------------|
5|-2-2-2-2-2-2-2-2-2-2-2-2-2-2-2-2-5-5-5-5-5-5-5-5-5-5-5-5-5-5-5-5-|
6|-0-0-0-0-0-0-0-0-0-0-0-0-0-0-0-0-3-3-3-3-3-3-3-3-3-3-3-3-3-3-3-3-|

Chorus Guitar1
1|-----------------------------------------------------------------|
2|-----------------------------------------------------------------|
3|-----------------------------------------------------------------|
4|-9-9-9-9-9-9-9-9-9-9-9-9-9-9-9-912121212121212121212121212121212-|
5|-7-7-7-7-7-7-7-7-7-7-7-7-7-7-7-710\9-9-9-9-910\9-9-9-9-910\9-9-9-|
6|-0-0-0-0-0-0-0-0-0-0-0-0-0-0-0-0---------------------------------|

Guitar 2
1|-----------------------------------------------------------------|
2|-----------------------------------------------------------------|
3|-----------------------------------------------------------------|
4|---------------------------------7-7-7-7-7-7-7-7-7-7-7-7-7-7-7-7-|
5|-2-2-2-2-2-2-2-2-2-2-2-2-2-2-2-2-5-5-5-5-5-5-5-5-5-5-5-5-5-5-5-5-|
6|-0-0-0-0-0-0-0-0-0-0-0-0-0-0-0-0-5-5-5-5-5-5-5-5-5-5-5-5-5-5-5-5-|

Interlude
1|-------4-4---2-2---0-2---0-2---2-0-2-------|
2|-0-2-----------------------0-----------0---|
3|-------------------------------------------|
4|-------------------------------------------|
5|-------------------------------------------|
6|-------------------------------------------|

Bridge

-----------------------------------------------------------------------------|
-----------------------------------------------------------------------------|
-----------------------------------------------------------------------------|
-----------------------------------------------------------------------------|
----/7p4------------------------/7p4-----------------------------------------|
-0-------7---0---3-/5-/5---0--0------7-0--3-5-3-5----------------------------| x5


Sara's Mask

-----------------------------------------|
-----------------------------------------|
-------------------7---------------------|
-----------9----------9------------------|
---------------9--------9--7---7--5-7-s9-|
-2-3---s7--------------------------------|

The first time I saw you I thought that I could just make another
And then I realized that in life you were just another mirror
The first words you spoke were the ones that I vaguely remember
But taddin the night and the times that we haven't spent together

Chorus
---------------------------------------------------------|
---------------------------------------------------------|
---------------------------------------------------------|
------12-11---11-7---------------------------------------|
------------------------7s9---7-7--5-7-7s9s7-------7-----|
-7-------------------------------------------5---5---5-7-|

And is it your face that's got you down?
Or is it your mind (mine) when no one's around? (Thinking thoughts of suicide)
And is it your face (mine)that's got you down?
Or is it your mind when no one's around?

Pre-Chorus

-------------------------------------------------------|
-------------------------------------------------------|
-------------------------------------------------------|
--------------9-7--------------------------------------|
-7--8-9--7-5--7-5----7--8-9--7-5--9-7----7------5--s10-|
-5--6-7--5-3---------5--6-7--5-3--7-5----5------3--s8--|

Verse 2
(w/ distortion)

And now when she leaves in the dark behind amber waves of cancer
A stroll in the park is a walk for her hopes to be a dancer
A light at the end of a tunnel that's been going on forever
You don't understand why these people are looking unfamiliar

Pre-Chorus

So take my hand 'cause I will walk you around in a mask
Why don't you tell me about

Chorus

And is it your face that's got you down?
Or is it your mind (mine) when no one's around? (Thinking thoughts of suicide)
And is it your face (mine)that's got you down?
Or is it your mind when no one's around?

Verse 3

And now when you leave in the dark beside everybody's answers
You plant it away to abandon us and live your life the way you like
Avoiding the urge to go sulk in your remedial appearance
Sara I only expect to see the whole thing a little bit clearer

Pre-Chorus

So take my hand 'cause I will walk you around in a mask
Why don't you tell me about

Bridge 1

Guitar 1

--------------------|
--------------------|
--------------------|
--------------------|
--------------------|
-7--7-7--7-10-7-9-5-|

Guitar 2

--------------------|
--------------------|
--------------------|
--------------------|
--------------------|
-5b-----------------|b7s

Gradual full bend with wah

Bridge 2

Guitar 1

-----------------------------------------|
-----------------------------------------|
-----------------------------------------|
-----------------------------------------|
-----------------------------------------|
-5--5-5--5-5--5-5--5-7--7-7--7-7--7-7--7-|

-----------------------------------------|
-----------------------------------------|
-----------------------------------------|
-----------------------------------------|
-9--9-9--9-9--9-9--9---------------------|
---------------------2--2-2--0-2--0-2--5-|

Guitar 2
w/ wah
---------------------|
---------------------|
---------------------|
---------------------|
---------------------|
-5--5-5--5-7-7-10-10-|

Bridge 3

Guitar 1 (Right Channel)
Clean w/ echo

------------------------------------------------|
------------------------------------------------|
------7p6--6------------7---7--7-7--------------|
-------------6-6---6-6--7---7--7-7--7-7---7-7-7-|
-9----------------------5---5--5-5--7-7---7-7-7-|
-7----------------------------------5-5---5-5-5-|

Guitar 2 (Left CHannel)
Clean w/ echo

---------------------------------------------------------|
---------------------------------------------------------|
---------------------------------------------------------|
------12-11---11s7-------------------------------------0-|
------------------------7s9---7-7--5-7-7s9s7------s7-----|
-7-------------------------------------------5---5-------|

-------------------------------------------------|
-------------------------------------------------|
-------------------------------------------------|
-7h9p7---7h9p7-----------------------------------|
---------------9-7--5-7s9s7----------7-----------|
----------------------------5------5----5h7------|

And is it your face...

---------------------------------------------------------|
---------------------------------------------------------|
---------------------------------------------------------|
------12-11---11s7-----------------------------------0---|
------------------------5---7--7s9-7-7-----5-------------|
-7-------------------7-----------------------------------|


Tuning: 1 1/2 Steps Down (Low to High: Db Gb B E Ab Db)

Chords

 Em Bm E5/C D   Am Bm(II) C
----------------------------|
----------------------------|
----------------------------|
-5-----9----7---2--4------5-|
-7--5--7----9---3--5------7-|
-0--7--8----10--5--7------8-|

This song is based on backwards power chords, a lot of overdubs, and static up the wazoo.

Em                           Bm
The mirror doesn't look like them I guess it never will

E5/C           D
--------------------------|
--------------------------|
--------------------------|
-9--9-9--9-7-----7---7--7-|
-7--7-7--7-7--10-9---9--9-|
-8--8-8--8-8--8-10--10-10-|
What would you say if I took a piece for me?

Am                     Bm(II)
Happiness is your best friend it doesn't appeal to me

 C   D(II)    D5   D(II)
---------------------|
---------------------|
---------------------|
-5---4--------0----4-|
-7---5--------5----5-|
-8-------------------|

Have you ever seen me?

As I talk it lets you down
You're finally used to me
But they never talk your way

The universe is in your hands it doesn't appeal to me
What would they say if I took a piece for me?
Happiness is your best friend it doesn't appeal to me
Have you ever seen me?

As I talk it lets you down
You're finally used to me
But you never talk your way

The mirror doesn't look like them I guess it never will
What would you say if I took a piece for me?
Happiness is your best friend it doesn't appeal to me
Have you ever seen me?
Tap to rate this tab
# A B C D E F G H I J K L M N O P Q R S T U V W X Y Z