Song name
# A B C D E F G H I J K L M N O P Q R S T U V W X Y Z

Cky - To All Of You tab

Cky:To All Of You

fun song, if anyone knows the fill at 2:18 email me 
vhstudlite@gmail.com
enjoy

Tuning : (D-G-C-F-A-D)

Intro (0:00 - 0:32)
|------------------------------------------------------------------|
|------------------------------------------------------------------|
|------------------------------------------------------------------|
|-88888888--------8888888866666666---------------------------------|
|-6666666688888888----------------66666666888888889999999911111111-| x 2
|---------66666666----------------444444446666666677777777-9-9-9-9-|

Bridge (0:33 - 0:47)
|---------------------------|------------------------|	
|---------------------------|------------------------|
|---------------------------|------------------------|	
|---8-7-6----8-7-6----8-7-6-|6-6h8 6/4 ---6----------|	
|-6--------6--------6-------|----------6-6- 44 33 22-|	x 2
|---------------------------|------------------------|

noise (0:48 - 1:04)
|-----------------------------------------------------------------|	
|-----------------------------------------------------------------|	
|-15-15-15-15-15-15-15-15-13-13-13-13-13-13-13-13-11-11-11-11-11--|	
|--x--x--x--x--x--x--x--x--x--x--x--x--x--x--x--x--x--x--x--x--x--|
|-13-13-13-13-13-13-13-13-11-11-11-11-11-11-11-11--9--9--9--9--9--|
|-----------------------------------------------------------------|

noise cont.
|-------------------------|	
|-------------------------|
|-11-15-15-15-15-15-15-15-|
|--x--x--x--x--x--x--x--x-| (@ 2:18, there is some crazy fill)
|--9-13-13-13-13-13-13-13-|       (^^no clue what hes playing)
|-------------------------|

Outro
|-----------------|
|-----------------|
|-----------------|
|-----------------|
|-6666666688888888|
|-4444444466666666|

Intro x 2 (0:00 - 0:32)
bridge x 2 (0:33 - 0:47)
noise (0:48 - 1:04)
Intro x 2 (1:05 - 1:34) 
bridge x 4 (1:35 - 2:06)
noise (2:07 - 2:22)
intro x 2 (2:23 - 2:53)
bridge x 4 (2:54 -3:26)
Outro (3:27 - end)
Tap to rate this tab
# A B C D E F G H I J K L M N O P Q R S T U V W X Y Z