Song name
# A B C D E F G H I J K L M N O P Q R S T U V W X Y Z

Cky - Behind The Screams tab

e|---3-----------5-----10----------10/12--8------------8/10----7----|
B|---------------------------8------------------8-------------------|
G|---------0--------0-----------0------------------0----------------|
D|---2--------2--2--------------------------------------------------|
A|----------------------7-----------------7--------------------6----|
E|------------------------------------------------------------------|

e|---5p3--3p2--2------------2h3p2-----2----3---------2-----3--|
B|--------------------3------------3-------------3------3-----|
G|------------------------------------------------------------|
D|---0-----------(0)----(0)-----------------------------------|
A|---------------------------------3-----2----2--2------------|
E|------------------------------------------------------------|

e|---3-----------5-----10----------10/12--8------------8/10----7------7|
B|---------------------------8------------------8------------------7---|
G|---------0--------0-----------0------------------0-------------------|
D|---2--------2--2-----------------------------------------------------|
A|----------------------7-----------------7--------------------6-------|
E|---------------------------------------------------------------------|

e|---5p3--3p2--2------------2h3p2-----2----3---------2-----3--|
B|--------------------3------------3-------------3------3-----|
G|------------------------------------------------------------|
D|---0-----------(0)----(0)-----------------------------------|
A|---------------------------------3-----2----2--2------------|
E|------------------------------------------------------------|

e|-----------------------------------------12-------------------------------|
B|-8------10---8-------10---10-------12----12-------------------------------|
G|---9--9----9---9---9----9----9---9----9-----------------------------------|
D|--------------------------------------------------------------------------|
A|-7---7--------------------------------------------------------------------|
E|-------------10--10--------8---8----------8-------------------------------|

e|-7\55-5\3-3--3p2-----5------2--3--------2-----3-----------------|               
B|-8\77-7\5-5------3---3---3-----------3-----3--------------------|     
G|----------------------------------------------------------------|            
D|-------------0-----0--------------------------------------------|   
A|-------------------------3----2---2--2--------------------------|           
E|-0--------------------------------------------------------------|           

e|-----------------------------------------12-------------------------------|
B|-8------10---8-------10---10-------12----12-------------------------------|
G|---9--9----9---9---9----9----9---9----9-----------------------------------|
D|--------------------------------------------------------------------------|
A|-7---7--------------------------------------------------------------------|
E|-------------10--10--------8---8----------8-------------------------------|


e|-7\55-5\3-3--3p2-----5------2--3--------2-----3-----------------|               
B|-8\77-7\5-5------3---3---3-----------3-----3--------------------|     
G|----------------------------------------------------------------|            
D|-------------0-----0--------------------------------------------|   
A|-------------------------3----2---2--2--------------------------|           
E|-0--------------------------------------------------------------|

e|-------------------------------2----------2h3p2--0------------------------|
B|-5/7----7h8p7-5---3---5---------------------------------------------------|
G|--------------------------------------------------------------------------|
D|-------------------------------0------0-----------------------------------|
A|-------------------------------------------------3------------------------|
E|-0----0---------0---0-----------------------------------------------------|

e|--10\(7)--7---10----/12-----7------7------------------------------|
B|--10\(8)--8---10----/12-----8----8------10--8----10-----/12-------|
G|-------------------------------9-----------------------------7----|
D|-------------------------------------------------------------0----|
A|------------------------------------------------------------------|
E|---0--------0----0-------0--------------8------8----8--------7----|

e|-------------------------------2----------2h3p2--0------------------------|
B|-5/7----7h8p7-5---3---5---------------------------------------------------|
G|--------------------------------------------------------------------------|
D|-------------------------------0------0-----------------------------------|
A|-------------------------------------------------3------------------------|
E|-0----0---------0---0-----------------------------------------------------|

e|--10\(7)--7---10----/12-----7------7------------------------------|
B|--10\(8)--8---10----/12-----8----8------10--8----10-----/12-------|
G|-------------------------------9-----------------------------7----|
D|-------------------------------------------------------------0----|
A|------------------------------------------------------------------|
E|---0--------0----0-------0--------------8------8----8--------7----|

e|-----------------------------------------12-------------------------------|
B|-8------10---8-------10---10-------12----12-------------------------------|
G|---9--9----9---9---9----9----9---9----9-----------------------------------|
D|--------------------------------------------------------------------------|
A|-7---7--------------------------------------------------------------------|
E|-------------10--10--------8---8----------8-------------------------------|

e|-0-2---3------2---3-----3/5---3----2---0----|--the-last-note----0----------|
B|---------0--3-------3----------------0------|--could-also-be----0----------|
G|--------------------------------------------|-------this--------0----------|
D|------------------------0-------0--1--------|-------------------2----------|
A|-3---3------2---2---------------------------|-------------------2----------|
E|---------------------------------------0----|-------------------0----------|
Tap to rate this tab
# A B C D E F G H I J K L M N O P Q R S T U V W X Y Z